Oops, an error
Loading. Please wait.
We have an official Cherry Wine tab made by UG professional guitarists. Check out the tab »
×

Cherry Wine tab

version 1
version 1

Whole song

  • This is far more organized, I included missing not... Show more

Interactive

by Hozier
522,561 views 3,018 this week
32 commentsread comments
1 2 3 4 5
x 535
add to favorites
×
Save as Personal and add changes to this tab that will be seen only by you. Learn more ›
×
You can save this tab as Personal to edit and correct it or add notes. All changes will be seen only by you. Learn more »
launch autoscroll
font size
0
reset
how to read this tab
guitar tuner
edit
Autoscroll
slow
fast
+/-
esc
set tempo
stop
[Intro]

e|---------------0|
B|----------------|
G|----------------|
D|----------------|
A|----------------|
E|3-3-3-3-3-3-3-3-|

e|--0-3-5--------------------------0--0-3-5-----------------|
B|-3--0------------------------------3----------------------|
G|--------2h4--4p2p0-0----0h2p0-0-----------2h4--4p2p0-0----|
D|--------0------------0h2-------------------------------oh2|
A|----------------------------------------------------------|
E|3-3-3-3-3--3-3-----3-3--3-----3-3-3-3-3-3-3--3-3-----3-3--|

e|--------------------------------------0---------------------------|
B|--------1--0-----------0----------------3-0-----------------------|
G|0h2p0------------0--2---------0-0-2p0------2-0-----0h2p00--0------|
D|--------------2-----------0h2--0--------------0h2------------0-0--|
A|--------3-3-3-3-3-3-3-3-3-3--3------------------------------------|
E|3---------------------------------3--3-3--3--3-3---3----3-3-3-33-3|


[Verse]

e|------------------------------0----|
B|3-----0--3----0-3---0-3-------1--1-|
G|---2--------2-----2-----0--0--0--0-|
D|------------------------2--2--2----|
A|------------------------------3-3-3|
E|3-3-3-3-3-3-3-3-3-3-3-3-0-0-0-3----|

e|---------------------------------------|
B|1p0-0-----------3-----0--3----0-3---0-3|
G|0---0--0h2p0-------2--------2-----2----|
D|-------------0-------------------------|
A|---------------------------------------|
E|3--3-3-3----3-3-3-3-3-3-3-3-3-3-3-3-3-3|

e|------0--------------------------|
B|------1--1--1p0-0----------------|
G|0--0--0--0--0---0--0h2p0---------|
D|2--2--2------------------0-------|
A|------3-3-3----------------------|
E|0-0-0-3-----3--3-3-3----3-3------|

Her eyes and words are so icy
Oh but she burns
Like rum on the fire
Hot and fast and angry
As she can be
I walk my days on a wire.

e|0-----0-0---0-----0-0---0-------------------------|
B|1-----2-0---1-----2-0---1-----1-1-1-1-------------|
G|0-----0-0---0-----0-0---0-------------------------|
D|2-----2-2---2-----2-2---2-------------0-----------|
A|3-----3-2-2-3-----3-2-2-3-----3-2-----------------|
E|3-----3-0---3-----3-0---3---------0-2-------------|

It looks ugly, but it's clean,
Oh momma, don't fuss over me.


[Chorus]

e|--0-3-5--------------------------0--0-3-5-----------------|
B|-3--0------------------------------3----------------------|
G|--------2h4--4p2p0-0----0h2p0-0-----------2h4--4p2p0-0----|
D|--------0------------0h2-------------------------------oh2|
A|----------------------------------------------------------|
E|3-3-3-3-3--3-3-----3-3--3-----3-3-3-3-3-3-3--3-3-----3-3--|

e|--------------------------------------0--------------------------|
B|--------1--0-----------0----------------3-0----------------------|
G|0h2p0------------0--2---------0-0-2p0------20-----0h2p00--0------|
D|--------------2-----------0h2--0--------------0h2------------0-0-|
A|--------3-3-3-3-3-3-3-3-3-3--3-----------------------------------|
E|3---------------------------------3--3-3--3-3-3---3----3-3-3-33-3|

The way she tells me I'm hers and she is mine
Open hand or closed fist would be fine
The blood is rare and sweet as cherry wine.

e|------------------------------0----|
B|3-----0--3----0-3---0-3-------1--1-|
G|---2--------2-----2-----0--0--0--0-|
D|------------------------2--2--2----|
A|------------------------------3-3-3|
E|3-3-3-3-3-3-3-3-3-3-3-3-0-0-0-3----|

e|---------------------------------------|
B|1p0-0-----------3-----0--3----0-3---0-3|
G|0---0--0h2p0-------2--------2-----2----|
D|-------------0-------------------------|
A|---------------------------------------|
E|3--3-3-3----3-3-3-3-3-3-3-3-3-3-3-3-3-3|

e|------0--------------------------|
B|------1--1--1p0-0----------------|
G|0--0--0--0--0---0--0h2p0---------|
D|2--2--2------------------0-------|
A|------3-3-3----------------------|
E|0-0-0-3-----3--3-3-3----3-3------|


[Verse]

Calls of guilty fall on me
All while she stains
The sheets of some other
Thrown at me so powerfully
Just like she throws with the arm of her brother.

e|0-----0-0---0-----0-0---0-------------------------|
B|1-----2-0---1-----2-0---1-----1-1-1-1-------------|
G|0-----0-0---0-----0-0---0-------------------------|
D|2-----2-2---2-----2-2---2-------------0-----------|
A|3-----3-2-2-3-----3-2-2-3-----3-2-----------------|
E|3-----3-0---3-----3-0---3---------0-2-------------|

But I want it, it's a crime
That she's not around most of the time.


[Chorus]

e|--0-3-5--------------------------0--0-3-5-----------------|
B|-3--0------------------------------3----------------------|
G|--------2h4--4p2p0-0----0h2p0-0-----------2h4--4p2p0-0----|
D|--------0------------0h2-------------------------------oh2|
A|----------------------------------------------------------|
E|3-3-3-3-3--3-3-----3-3--3-----3-3-3-3-3-3-3--3-3-----3-3--|

e|--------------------------------------0--------------------------|
B|--------1--0-----------0----------------3-0----------------------|
G|0h2p0------------0--2---------0-0-2p0------20-----0h2p00--0------|
D|--------------2-----------0h2--0--------------0h2------------0-0-|
A|--------3-3-3-3-3-3-3-3-3-3--3-----------------------------------|
E|3---------------------------------3--3-3--3-3-3---3----3-3-3-33-3|

The way she shows me I'm hers and she is mine
Open hand or closed fist would be fine
Blood is rare and sweet as cherry wine.


[Instrumental]

e|-----0---------0-------0----------------|
B|0h1---1-1/3-----3-3/1---1-1/3--3/1p0--0-|
G|----0---------0-------0-----------------|
D|---2--------4--------2----2/4--4/2p0--0-|
A|0-------0---------0---------------------|
E|----------------------------------------|

e|---------------------------------|
B|------1h3------------------------|
G|---0-----0h2-------------0h2p0-0-|
D|------------0h2p0-----0h2--------|
A|-----------------0h2-------------|
E|3-3-3-3--3--3----3--3-3--3----3-3|

e|-----0---------0-------0----------------|
B|0h1---1-1/3-----3-3/1---1-1/3--3/1p0--0-|
G|----0---------0-------0-----------------|
D|---2--------4--------2----2/4--4/2p0--0-|
A|0-------0---------0---------------------|
E|----------------------------------------|

e|-----------------------------------|
B|0----0--0--------------------------|
G|----0-0---0---0-----0--------------|
D|---------2--0-0--0-----0-----------|
A|---2-------------------------------|
E|0-------0---2-3-3-3-3-3-3----------|


[Verse]

e|------------------------------0----|
B|3-----0--3----0-3---0-3-------1--1-|
G|---2--------2-----2-----0--0--0--0-|
D|------------------------2--2--2----|
A|------------------------------3-3-3|
E|3-3-3-3-3-3-3-3-3-3-3-3-0-0-0-3----|

e|---------------------------------------|
B|1p0-0-----------3-----0--3----0-3---0-3|
G|0---0--0h2p0-------2--------2-----2----|
D|-------------0-------------------------|
A|---------------------------------------|
E|3--3-3-3----3-3-3-3-3-3-3-3-3-3-3-3-3-3|

e|------0--------------------------|
B|------1--1--1p0-0----------------|
G|0--0--0--0--0---0--0h2p0---------|
D|2--2--2------------------0-------|
A|------3-3-3----------------------|
E|0-0-0-3-----3--3-3-3----3-3------|

Her fight and fury is fiery
Oh but she loves
Like sleep the the freezing
Sweet and right and merciful
I'm all but washed
In the tide of her breathing

e|0-----0-0---0-----0-0---0-------------------------|
B|1-----2-0---1-----2-0---1-----1-1-1-1-------------|
G|0-----0-0---0-----0-0---0-------------------------|
D|2-----2-2---2-----2-2---2-------------0-----------|
A|3-----3-2-2-3-----3-2-2-3-----3-2-----------------|
E|3-----3-0---3-----3-0---3---------0-2-------------|

And it's worth it, it's divine
And I can have this some of the time.


[Chorus]

e|--0-3-5--------------------------0--0-3-5-----------------|
B|-3--0------------------------------3----------------------|
G|--------2h4--4p2p0-0----0h2p0-0-----------2h4--4p2p0-0----|
D|--------0------------0h2-------------------------------oh2|
A|----------------------------------------------------------|
E|3-3-3-3-3--3-3-----3-3--3-----3-3-3-3-3-3-3--3-3-----3-3--|

e|--------------------------------------0--------------------------|
B|--------1--0-----------0----------------3-0----------------------|
G|0h2p0------------0--2---------0-0-2p0------20-----0h2p00--0------|
D|--------------2-----------0h2--0--------------0h2------------0-0-|
A|--------3-3-3-3-3-3-3-3-3-3--3-----------------------------------|
E|3---------------------------------3--3-3--3-3-3---3----3-3-3-33-3|

The way she shows me I'm hers and she is mine
Open hand or closed fist would be fine
The blood is rare and sweet as cherry wine.


[Outro]

e|-0|--0-3-5--------------------------0--0-3-5-----------------|
B|--|-3--0------------------------------3----------------------|
G|--|--------2h4--4p2p0-0----0h2p0-0-----------2h4--4p2p0-0----|
D|--|--------0------------0h2-------------------------------oh2|
A|--|----------------------------------------------------------|
E|3-|3-3-3-3-3--3-3-----3-3--3-----3-3-3-3-3-3-3--3-3-----3-3--|

e|--------------------------------------0--------------------------|
B|--------1--0-----------0----------------3-0----------------------|
G|0h2p0------------0--2---------0-0-2p0------20-----0h2p0-0--------|
D|--------------2-----------0h2--0--------------0h2-------0--------|
A|--------3-3-3-3-3-3-3-3-3-3--3--------------------------2--------|
E|3---------------------------------3--3-3--3-3-3---3-----3--------|


************************************

| /   slide up
| \   slide down
| h   hammer-on
| p   pull-off

************************************

            
            
Suggest correction
Creating personal tab
Creating personal tab
You can edit any tab online and save it as your Personal.

You can edit, replace or remove any tab part or add personal notes – all changes will be seen only by you.

Personal tabs can be accessed anytime from any device, even offline.
Learn more »
comments
print report bad tab
32 comments total. Showing first comments.
+16 reply
christopher.car 10 Jan 09, 2014 08:49 AM

Excellent tab man, any chance of one for 'Like Real People Do'? ;-)

+9 reply
JimmyO96 170 Feb 17, 2014 11:32 PM

great job!

+8 reply
wiseowl5569 10 Apr 19, 2014 03:30 PM

Amazing job, everything seems spot on! Thanks for sharing it with us online

guest
You may want to rate the tab now too:
select rating
Wanna post a correction for this tab? Suggest correction