Oops, an error
Loading. Please wait.

Like Real People Do tab

version 3
version 3

Whole song

  • This version is easier for novices to understand w... Show more
  • Updated Ver 2 by Gossy07 for G B D G B E tuning. T... Show more
by Hozier
2,587 views 30 this week
no commentswrite comment
1 2 3 4 5
x 3
add to favorites
×
Save as Personal and add changes to this tab that will be seen only by you. Learn more ›
×
You can save this tab as Personal to edit and correct it or add notes. All changes will be seen only by you. Learn more »
launch autoscroll
font size
0
reset
how to read this tab
guitar tuner
edit
Autoscroll
slow
fast
+/-
esc
set tempo
stop
-------------------------------------------------------------------------------
        SONG NAME like real people do - Band Name hozier
-------------------------------------------------------------------------------
Tabbed by: landon barksdale
E-mail: climbonlandon@gmail.com

Tuning:standard 
  no capo                      Intro
e|-------0-------------------------------------------------------------------|
B|---------3-0------------------------0---------0h2--------------------------|
G|-------------0h2-0--2h4p2p0-----------2-0---------2h4p2-0h2-0--------------|
D|----------------------------2-0-----------0h2------------------0-----------|
A|---------------------------------2-----------------------------------------|
E|-3-3-3-3-3-3-3--3-3-3-------3-3-3-3-3-3-3-3--3--3-3----3--3-3-3-3----------|

e|-0-------------------------------------------------------------------------|
B|---3-0------------------------0---------0h2--------------------------------|
G|-------0h2-0--2h4p2p0-----------2-0---------2h4p2-0h2-0--0-----------------|
D|----------------------2-0-----------0h2------------------------------------|
A|---------------------------2-----------------------------------------------|
E|-3-3-3-3--3-3-3-------3-3-3-3-3-3-3-3--3--3-3----3--3-3-3-3----------------|
  
                                    Verse           

I had a thought dear however scary 
  about that night the bugs and the dirt
e|-0-------------------------------------------------------------------------|
B|---3-0---------0-3-0-------0-3-0-------------------------------------------|
G|-------2--0--2--------2--2--------2--0-2-4-0--0----------------------------|
D|---------------------------------------------------------------------------|
A|---------------------------------------------------------------------------|
E|-3-3-3-3-3-3-3-3-3-3-3-3-3-3-3-3-3-3-3-3-3-3-3-3---------------------------|
  why were you digging what did you bury before 
  those hands pulled me from the earth  
e|-0-------------------------------------------------------------------------|
B|---3-0---------0-3-0-------0-3-0-------------------------------------------|
G|-------2--0--2--------2--2--------2--0-2-4-0--0----------------------------|
D|---------------------------------------------------------------------------|
A|---------------------------------------------------------------------------|
E|-3-3-3-3-3-3-3-3-3-3-3-3-3-3-3-3-3-3-3-3-3-3-3-3---------------------------|
  
                                   Chorus 

  I will not ask you where you came from
  I will not ask and neither will you 
e|---------------------------------------------------------------------------|
B|---------------------------------------------------------------------------|
G|-0-----------------------0-----------------0--0----------------------------|
D|---4-2-0-----0--2--0-------4-2-0-----0-2-4---------------------------------|
A|----------2-----------2-----------2----------------------------------------|
E|-3-3-3-3-3-3-3-3-3 3-3-3-3-3-3-3-3-3-3-3-3-3-3-3---------------------------|
  honey just put your sweet lips on my lips 
  we should just kiss like real people do
e|-0-------------------------------------------------------------------------|
B|---3-0-------0-----------0-----------0-------------------------------------|
G|-------2--0----2-0----0----2-0---------2-0-0--0----------------------------|
D|-------------------2-----------2--0--------0-------------------------------|
A|---------------------------------------------------------------------------|
E|-3-3-3-3-3-3-3-3-3-3-3-3-3-3-3-3-3-3-3-3-3-3-3-3---------------------------|

                                Guitar solo

e|-0-------------------------------------------------------------------------|
B|---3-0------------------------0---------0h2--------------------------------|
G|-------0h2-0--2h4p2p0-----------2-0---------2h4p2-0h2-0--0-----------------|
D|----------------------2-0-----------0h2------------------------------------|
A|---------------------------2-----------------------------------------------|
E|-3-3-3-3--3-3-3-------3-3-3-3-3-3-3-3--3--3-3----3--3-3-3-3----------------|

                                   Verse 2 

  I knew that look dear eyes always seeking 
  was there in someone that dug long ago 
e|-0-------------------------------------------------------------------------|
B|---3-0---------0-3-0-------0-3-0-------------------------------------------|
G|-------2--0--2--------2--2--------2--0-2-4-0--0----------------------------|
D|---------------------------------------------------------------------------|
A|---------------------------------------------------------------------------|
E|-3-3-3-3-3-3-3-3-3-3-3-3-3-3-3-3-3-3-3-3-3-3-3-3---------------------------|
  so I will not ask you why you were creeping 
  in some sad way I already know  

e|-0-------------------------------------------------------------------------|
B|---3-0---------0-3-0-------0-3-0-------------------------------------------|
G|-------2--0--2--------2--2--------2--0-2-4-0--0----------------------------|
D|---------------------------------------------------------------------------|
A|---------------------------------------------------------------------------|
E|-3-3-3-3-3-3-3-3-3-3-3-3-3-3-3-3-3-3-3-3-3-3-3-3---------------------------|                                 

                                 Chorus 

  I would not ask you where you came from
  I would not ask and neither would you 
e|---------------------------------------------------------------------------|
B|---------------------------------------------------------------------------|
G|-0-----------------------0-----------------0--0----------------------------|
D|---4-2-0-----0--2--0-------4-2-0-----0-2-4---------------------------------|
A|----------2-----------2-----------2----------------------------------------|
E|-3-3-3-3-3-3-3-3-3 3-3-3-3-3-3-3-3-3-3-3-3-3-3-3---------------------------|
  honey just put your sweet lips on my lips 
  we would just kiss like real people do
e|-0-------------------------------------------------------------------------|
B|---3-0-------0-----------0-----------0-------------------------------------|
G|-------2--0----2-0----0----2-0---------2-0-0--0----------------------------|
D|-------------------2-----------2--0--------0-------------------------------|
A|---------------------------------------------------------------------------|
E|-3-3-3-3-3-3-3-3-3-3-3-3-3-3-3-3-3-3-3-3-3-3-3-3---------------------------| 

                                Guitar solo 2

e|-0-------------------------------------------------------------------------|
B|---3-0------------------------0---------0h2--------------------------------|
G|-------0h2-0--2h4p2p0-----------2-0---------2h4p2-0h2-0--0-----------------|
D|----------------------2-0-----------0h2------------------------------------|
A|---------------------------2-----------------------------------------------|
E|-3-3-3-3--3-3-3-------3-3-3-3-3-3-3-3--3--3-3----3--3-3-3-3----------------|

e|-0-------------------------------------------------------------------------|
B|---3-0------------------------0---------0h2--------------------------------|
G|-------0h2-0--2h4p2p0-----------2-0---------2h4p2-0h2-0--0-----------------|
D|----------------------2-0-----------0h2------------------------------------|
A|---------------------------2-----------------------------------------------|
E|-3-3-3-3--3-3-3-------3-3-3-3-3-3-3-3--3--3-3----3--3-3-3-3----------------|

                                 Chorus 

  I could not ask you where you came from
  I could not ask and neither could you 
e|---------------------------------------------------------------------------|
B|---------------------------------------------------------------------------|
G|-0-----------------------0-----------------0--0----------------------------|
D|---4-2-0-----0--2--0-------4-2-0-----0-2-4---------------------------------|
A|----------2-----------2-----------2----------------------------------------|
E|---------------------------------------------------------------------------|
  honey just put your sweet lips on my lips 
  we would just kiss like real people do
e|-0-------------------------------------------------------------------------|
B|---3-0-------0-----------0-----------0-------------------------------------|
G|-------2--0----2-0----0----2-0---------2-0-0--0----------------------------|
D|-------------------2-----------2--0--------0-------------------------------|
A|---------------------------------------------------------------------------|
E|-3-3-3-3-3-3-3-3-3-3-3-3-3-3-3-3-3-3-3-3-3-3-3-3---------------------------|  

                                Guitar solo 3

e|-12-10-7-5--3--7-5-3-0-----7-5-3-0-----0-3-5-3--3--------------------------|
B|------------------------3-----------3--------------------------------------|
G|---------------------------------------------------------------------------|
D|---------------------------------------------------------------------------|
A|---------------------------------------------------------------------------|
E|-12-10-7-5-3-3-7-5-3-3-3-3 7-5-3-3-3-3-3-3-5-3-3-3-------------------------|

e|-12-10-7-5--3--7-5-3-0-----7-5-3-0-----0-3-5-3--3--------------------------|
B|------------------------3-----------3--------------------------------------|
G|---------------------------------------------------------------------------|
D|---------------------------------------------------------------------------|
A|---------------------------------------------------------------------------|
E|-12-10-7-5-3-3-7-5-3-3-3-3 7-5-3-3-3-3-3-3-5-3-3-3-------------------------|

                                Outro

e|-0-------------------------------------------------------------------------|
B|---3-0--------------------0------------------------------------------------|
G|-------0h2-0-2h4p2p0--------2-0----0----4-2-0-0----------------------------|
D|--------------------2-0---------0h2---2-------0----------------------------|
A|------------------------2---------------------2----------------------------|
E|----------------------------------------------3----------------------------|

I did my best to get it as close to the barn on the farm sessions version as possible 
it's one of my favorite songs

ENJOY :)

************************************

| /   slide up
| \   slide down
| h   hammer-on
| p   pull-off
| ~   vibrato
| +   harmonic
| x   Mute note
| b   Bend
| pb  Pre-bend
| br  Bend release
| pbr Pre-bend release
| brb Bend release bend

************************************

            
            
Suggest correction
Creating personal tab
Creating personal tab
You can edit any tab online and save it as your Personal.

You can edit, replace or remove any tab part or add personal notes – all changes will be seen only by you.

Personal tabs can be accessed anytime from any device, even offline.
Learn more »
Give kudos to tab author, rate the tab!
1 2 3 4 5
comments
print report bad tab
guest
You may want to rate the tab now too:
select rating
Wanna post a correction for this tab? Suggest correction