Oops, an error
Loading. Please wait.

Run tab

by Hozier
10,949 views 45 this week
1 commentread comment
1 2 3 4 5
x 17
add to favorites
×
Save as Personal and add changes to this tab that will be seen only by you. Learn more ›
×
You can save this tab as Personal to edit and correct it or add notes. All changes will be seen only by you. Learn more »
launch autoscroll
font size
0
reset
how to read this tab
guitar tuner
edit
Autoscroll
slow
fast
+/-
esc
set tempo
stop
Author
Difficulty
intermediate
Run
Hozier (Deluxe Version)
Standard Tuning 4/4

Notes are played on the 1st beat and the 3+ beat as an up strum of the 4 beats in the bar.
Its same for all chords throughout.

[Intro]
e|----6----6----6----6---|
B|----6----6----6----6---|
G|----6----6----6----6---|
D|----8----8----8----8---|
A|----8----8----8----8---|
E|--6----6----6----6-----|

[Chorus]
Rare is this love keep it covered
e|----6----6----6----6---|
B|----6----6----6----6---|
G|----6----6----6----6---|
D|----8----8----8----8---|
A|----8----8----8----8---|
E|--6----6----6----6-----|

I need you to run to me....
e|----4----1----2----2---|
B|----4----1----2----2---|
G|----5----1----3----3---|
D|----6----3----4----4---|
A|----6----3----4----4---|
E|--4----1----2----2-----|

Run until you feel your lungs bleeding
e|----2----4----6----6----6----6---|
B|----2----4----6----6----6----6---|
G|----3----5----6----6----6----6---|
D|----4----6----8----8----8----8---|
A|----4----6----8----8----8----8---|
E|--2----4----6----6----6----6-----|

[Verse]
 Oh but the pharaoh knows her hungry eye her ancient soul....
e|----6----6----6----6----4----1----1----1----|
B|----6----6----6----6----4----1----1----1----|
G|----6----6----6----6----5----1----1----1----|
D|----8----8----8----8----6----3----3----3----|
A|----8----8----8----8----6----3----3----3----|
E|--6----6----6----6----4----1----1----1------|

 Know what it is to grow....
e|----6----6----6----6----4----1----1----1----|
B|----6----6----6----6----4----1----1----1----|
G|----6----6----6----6----5----1----1----1----|
D|----8----8----8----8----6----3----3----3----|
A|----8----8----8----8----6----3----3----3----|
E|--6----6----6----6----4----1----1----1------|

To be twisted by something ....
e|----2----4----4----2----2----2----2----4----4----4---|
B|----2----4----6----2----2----2----2----4----4----4---|
G|----3----5----6----3----3----3----3----5----5----5---|
D|----4----6----6----4----4----4----4----6----6----6---|
A|----4----6---4-----4----4----4----4----6----6----6---|
E|--2----4---------2----2----2----2----4----4----4-----|

[Chorus]
Rare is this love keep it covered
e|----6----6----6----6---|
B|----6----6----6----6---|
G|----6----6----6----6---|
D|----8----8----8----8---|
A|----8----8----8----8---|
E|--6----6----6----6-----|

I need you to run to me....
e|----4----1----2----2---|
B|----4----1----2----2---|
G|----5----1----3----3---|
D|----6----3----4----4---|
A|----6----3----4----4---|
E|--4----1----2----2-----|

Run until you feel your lungs bleeding
e|----2----4----6----6----6----6---|
B|----2----4----6----6----6----6---|
G|----3----5----6----6----6----6---|
D|----4----6----8----8----8----8---|
A|----4----6----8----8----8----8---|
E|--2----4----6----6----6----6-----|

[Verse]
But in all the world....
e|----6----6----6----6----4----1----1----1----|
B|----6----6----6----6----4----1----1----1----|
G|----6----6----6----6----5----1----1----1----|
D|----8----8----8----8----6----3----3----3----|
A|----8----8----8----8----6----3----3----3----|
E|--6----6----6----6----4----1----1----1------|

 But for all he's worth....
e|----6----6----6----6----4----1----1----1----|
B|----6----6----6----6----4----1----1----1----|
G|----6----6----6----6----5----1----1----1----|
D|----8----8----8----8----6----3----3----3----|
A|----8----8----8----8----6----3----3----3----|
E|--6----6----6----6----4----1----1----1------|

Rushing ashore to meet her ....
e|----2----4----4----2----2----2----2----4----4----4---|
B|----2----4----6----2----2----2----2----4----4----4---|
G|----3----5----6----3----3----3----3----5----5----5---|
D|----4----6----6----4----4----4----4----6----6----6---|
A|----4----6---4-----4----4----4----4----6----6----6---|
E|--2----4---------2----2----2----2----4----4----4-----|

[Chorus] x3
Rare is this love keep it covered
e|----6----6----6----6---|
B|----6----6----6----6---|
G|----6----6----6----6---|
D|----8----8----8----8---|
A|----8----8----8----8---|
E|--6----6----6----6-----|

I need you to run to me....
e|----4----1----2----2---|
B|----4----1----2----2---|
G|----5----1----3----3---|
D|----6----3----4----4---|
A|----6----3----4----4---|
E|--4----1----2----2-----|

Run until you feel your lungs bleeding
e|----2----4----6----6----6----6---|
B|----2----4----6----6----6----6---|
G|----3----5----6----6----6----6---|
D|----4----6----8----8----8----8---|
A|----4----6----8----8----8----8---|
E|--2----4----6----6----6----6-----|


Sounds about right, any corrections would be helpful.

            
            
Suggest correction
Creating personal tab
Creating personal tab
You can edit any tab online and save it as your Personal.

You can edit, replace or remove any tab part or add personal notes – all changes will be seen only by you.

Personal tabs can be accessed anytime from any device, even offline.
Learn more »
comments
print report bad tab
1 comment total.
0 reply
CharleyGuitar17 32 Sep 11, 2017 12:29 PM

Great tab!! Not too difficult to play either

guest
You may want to rate the tab now too:
select rating
Wanna post a correction for this tab? Suggest correction