Oops, an error
Loading. Please wait.

Pop Goes My Heart bass

version 1
version 1

Whole song

Interactive

1,130 views 1 this week
no commentswrite comment
1 2 3 4 5
3 more votes to show rating
add to favorites
×
Save as Personal and add changes to this tab that will be seen only by you. Learn more ›
×
You can save this tab as Personal to edit and correct it or add notes. All changes will be seen only by you. Learn more »
launch autoscroll
font size
0
reset
guitar tuner
edit
Autoscroll
slow
fast
+/-
esc
set tempo
stop
Author
------------------------------------------------------------------------------
            Pop! Goes My Heart - Hugh Grant (aka Pop!)
-------------------------------------------------------------------------------

Tabbed By : Maxwell A

Tuning:Standard

 INTRO/VERSE

G|-------------------------------------------------------------------------|
D|-------------------------------------------------------------------------|
A|---------------------------------2-2-2-2-2-2-2-2-4-4-4-5-5-5-7-7---------|
E|-3-3-3-3-3-3-3-3-5-5-5-5-5-5-5-5-----------------------------------------|

 (last verse before chorus)

G|-------------------------------------------------------------------------|
D|-------------------------------------------------------5-5-5-4-4---------|
A|---------------------------------2-2-2-2-2-2-2-2-4-4-4-------------------|
E|-3-3-3-3-3-3-3-3-5-5-5-5-5-5-5-5-----------------------------------------|

 CHORUS

G|-------------------------------------------------------------------------|
D|-------------------------------------------------------------------------|
A|-5-5-5-5-5-5-5-5-7-7-7-7-7-7-7-7-9-9-9-9-9-9-9-9-5-5-5-5-5-5-5-5---------|
E|-------------------------------------------------------------------------|

 (last part of chorus ("..and I just cant let you go.." part))

G|-------------------------------------------------------------------------|
D|-5-5-5-5-4-4-4-4-2-2-2-2---------------------------------4-4-2-2---------|
A|-------------------------5-5-5-5-4-4-4-4-4-4-4-4-5-5-4-4-----------------|
E|-------------------------------------------------------------------------|

 Anyways it's your basic base tab, I can't be sure of some parts (because in the movie 
And Lyrics" you can only really hear it in the verse/intro) So some of it may be iffy.  
the just of it is correct.

            
            
Suggest correction
Creating personal tab
Creating personal tab
You can edit any tab online and save it as your Personal.

You can edit, replace or remove any tab part or add personal notes – all changes will be seen only by you.

Personal tabs can be accessed anytime from any device, even offline.
Learn more »
Give kudos to tab author, rate the tab!
1 2 3 4 5
comments
print report bad tab
guest
You may want to rate the tab now too:
select rating
Wanna post a correction for this tab? Suggest correction