Oops, an error
Loading. Please wait.

Empayarmu tab

version 2
version 2

Whole song

by Hujan
1,634 views 1 this week
no commentswrite comment
1 2 3 4 5
3 more votes to show rating
add to favorites
×
Save as Personal and add changes to this tab that will be seen only by you. Learn more ›
×
You can save this tab as Personal to edit and correct it or add notes. All changes will be seen only by you. Learn more »
launch autoscroll
font size
0
reset
how to read this tab
guitar tuner
edit
Autoscroll
slow
fast
+/-
esc
set tempo
stop
Assalamualaikum…

Band    : Hujan
Song    : Empayarmu
Album   : Hujan
Tuning  : EADGBe

aku x bape sure la tune gtar aku standard ke x..den lomah skit maen gtar..ha ha
klo starting rase xbetul anjak la 1 fred ke depan...
tabs xde ler tepat maner...nk layan stim skit ble laa..
korg try ler dulu.....rase xbest xyah layan...ha ha ha

intro

e|-4----7----9----7----|
B|-6----9----10---9----|
G|-4----7----9----7----|
D|-6----9----10---9----|  bape kali korg denga la sendiri
A|-4----7----9----9----|
E|---------------------|

-----------------------------------------------------------------
Verse 1

"Suku kaummu memang begitu"
  X8                     X16
e|-6-----------------------8-----|
B|-6-----------------------8-----|
G|-6-----------------------9-----|          
D|-8-----------------------10----|  
A|-------------------------8-----|
E|-------------------------------|

"Dari jauh baumu dapat ku hidu"
  X8                     X16
e|-6-----------------------8-----|
B|-6-----------------------8-----|
G|-6-----------------------9-----|          
D|-8-----------------------10----|  
A|-------------------------8-----|
E|-------------------------------|

"Teman datang..... dan juga pergi....."
  X5                X5
e|-6-----------------6-----|
B|-6-----------------6-----|
G|-7-----------------6-----|          
D|-8-----------------8-----|  
A|-6-----------------------|
E|-------==----------------|

"ada juga...... yang kembali"
  X5                X5
e|-6-----------------8-----|
B|-6-----------------8-----|
G|-7-----------------9-----|          
D|-8-----------------10----|  
A|-6-----------------8-----|
E|-------------------------|

verse 2
same la ngan verse 1..
repeat ler balik yer....

-----------------------------------------------------------------

pre-chorus 
“biarpun mati…”       “biarpun mati…”
e|-9~---------------9~------|
B|-11~--------------11~-----|
G|-10~--------------10~-----|
D|-11~---11---------10~-----|
A|-9~----9----------9~------|
E|--------------------------|
        . .


chorus 
part korus aku paling tonggong...yg nie jer dpt cari..layan jer laa...waaa

"Empayarx3  mu....Bila bila masa...Bila bila masa akan musnah"
  X16       X5   X5        X16     X5         X5
e|-6--------4----4----------9------9----------9----|
B|-6--------4----6----------11-----11---------10---|
G|-6--------4----4----------10-----10---------11---|
D|-8--------6----6----------11-----11---------11---|  X2
A|--------------------------9------9----------9----|
E|-------------------------------------------------|

---------------------------------------------------------------------------

play intro
     verse 1
     pre-chorus
     chorus

solo xtau..xpndai laaa..


outro
same gak cm intro…

----------------------------------------------------------------------
ha....nie jer la yg aku tau....
per2 nk comment ker xpueh ati nk kutuk sile la email
morehighmean_84@hotmail.com
myspace nk cri aku type la email 2 yer...

semoga bjaya dgn gilang n terbilang...
Assalamualaikum…

- en ram ram

            
            
Suggest correction
Creating personal tab
Creating personal tab
You can edit any tab online and save it as your Personal.

You can edit, replace or remove any tab part or add personal notes – all changes will be seen only by you.

Personal tabs can be accessed anytime from any device, even offline.
Learn more »
Give kudos to tab author, rate the tab!
1 2 3 4 5
comments
print report bad tab
guest
Wanna post a correction for this tab? Suggest correction