Oops, an error
Loading. Please wait.

Consecuencias tab

14 views 1 this week
no commentswrite comment
1 2 3 4 5
3 more votes to show rating
add to favorites
×
Save as Personal and add changes to this tab that will be seen only by you. Learn more ›
×
You can save this tab as Personal to edit and correct it or add notes. All changes will be seen only by you. Learn more »
launch autoscroll
font size
0
reset
how to read this tab
guitar tuner
edit
Autoscroll
slow
fast
+/-
esc
set tempo
stop
/     Slide
P.M.  Palm Mute
xX    X Veces
UP    Jalar la cuerda hacia arriba

Tuning: Standard Eb (medio tono abajo)


Intro:

Guitarras 1 y 2:


       D#m   D    F#  F#7    B    F#6
Eb|-----x----x----x----x-----0-----0-----|
Bb|-----8----8----8----7-----1-----3-----|
F#|-----0----0----0----0-----0-----0-----|
C#|-----x----x----x----x-----2-----0-----|
G#|-----7----6----5----5-----3-----------|
Eb|--------------------------------------|


D#m            D
El se siente mal

                F#
Le duele la garganta


Ya no quiere estar sentado

F#7                  D#m
Junto a ella pero que

               D
Ya que puede hacer

                     F#
Despues de todo el día


La rutina que llevaban

F#7                    D#m
Ya no va a poder cambiar

            D
Y no regresara

                       F#
Despues de todos mis días

                  F#7 
De tenerla y olvidarla

      B
De estar aqui

     F#6
Esperandome


Guitarra 1:
                                                B              F#6

Eb|--x-x-x-x---x-x-x-x-x-x--|             |-----0---------------0----|
Bb|--8-8-8-8---7-7-7-7-7-7--|             |-----1---------------3----|
F#|--x-x-x-x---x-x-x-x-x-x--|             |-----0---------------0----|
C#|--7-7-7-7---5-5-5-5-5-5--|             |-----2---------------0----|
G#|-------------------------|             |-----3--------------------|
Eb|-------------------------|x2           |--------------------------|

Guitarra 2:

Eb|-----------------------------------|   |-----0---------------0----|
Bb|-----------------------------------|   |-----1---------------3----|
F#|--12-12-12-12---11-11-11-11-11-11--|   |-----0---------------0----|
C#|--x--x--x--x----x--x--x--x--x--x---|   |-----2---------------0----|
G#|--10-10-10-10---9--9--9--9--9--9---|   |-----3--------------------|
Eb|--x--x--x--x----x--x--x--x--x--x---|x2 |--------------------------|


Solamente, vives para el!!!!              De estar aqui, preguntandome.


Guitarra 1:

Eb|--x-x-x-x---x-x-x-x-x-x--|
Bb|--8-8-8-8---7-7-7-7-7-7--|
F#|--x-x-x-x---x-x-x-x-x-x--|
C#|--7-7-7-7---5-5-5-5-5-5--|
G#|-------------------------|
Eb|-------------------------|x2

Guitarra 2:

Eb|-----------------------------------|
Bb|-----------------------------------|
F#|--12-12-12-12---11-11-11-11-11-11--|
C#|--x--x--x--x----x--x--x--x--x--x---|
G#|--10-10-10-10---9--9--9--9--9--9---|
Eb|--x--x--x--x----x--x--x--x--x--x---|x2

Solamente, vives para el!!!!


Guitarra 1:

Eb|--x------x-----x-x---x-x-x/x-x-x----x-x---x-x-x/x-x-x--|
Bb|--7------5-----3-5---3-3-3/5-5-5----3-5---3-3-3/5-5-5--|
F#|--x------x-----x-x---x-x-x/x-x-x----x-x---x-x-x/x-x-x--|
C#|--5-x16--3-x16-2-3---2-2-2/3-3-3----2-3---2-2-2/3-3-3--|
G#|-------------------------------------------------------|
Eb|-------------------------------------------------------|x2

Guitarra 2:

Eb|-------------------------------------------------------|
Bb|-------------------------------------------------------|
F#|--11-----9-----7-9---7-7-7-9-9-9----7-9---7-7-7-9-9-9--|
C#|--x------x-----x-x---x-x-x/x-x-x----x-x---x-x-x/x-x-x--|
G#|--9------7-----5-7---5-5-5-7-7-7----5-7---5-5-5-7-7-7--|
Eb|--x-x16--x-x16-x-x---x-x-x/x-x-x----x-x---x-x-x/x-x-x--|x2


Guitarra 1:
     B
Eb|--0--|
Bb|--1--|
F#|--0--|
C#|--2--|
G#|-----|
Eb|-----|

Guitarra 2: (con reverb)

Eb|--0-------0--------0-----------|
Bb|---3-3------3-3-----3UP--------|
F#|-------0-----------------------|
C#|----------------4--------------|
G#|-------------------------------|
Eb|-------------------------------|x2


Bridge:

Guitarras 1 y 2:

Eb|-----------------------------|
Bb|-----------------------------|
F#|-----------------------------|
C#|--x------x------x------x-----|
G#|--2------3------5------7-----|
Eb|--x-x16--x-x16--x-x16--x-x16-|

  |<-----------P.M.------------>|

Guitarra 1:

Eb|--x-----------------x-----------------x-------------------|
Bb|--3-----------------5-----------------7-------------------|
F#|--x-----------------x-----------------x-------------------|
C#|--2-x-x-x-x-xxxxx---3-x-x-x-x-xxxxx---5-x-x-x-x-x-x-x-----|
G#|----2-2-2-2-22222-----3-3-3-3-33333-----5-5-5-5-5-5-5-----|
Eb|----x-x-x-x-xxxxx-----x-x-x-x-xxxxx-----x-x-x-x-x-x-x-----|

Guitarra 2:

Eb|----------------------------------------------------------|
Bb|----------------------------------------------------------|
F#|--7-----------------9-----------------11------------------|
C#|--x-----------------x-----------------x-------------------|
G#|--5-x-x-x-x-x-x-x-x-7-x-x-x-x-x-x-x-x-9-x-x-x-x-x-x-x-x---|
Eb|--x-x-x-x-x-x-x-x-x-x-x-x-x-x-x-x-x-x-x-x-x-x-x-x-x-x-x---|


Guitarra 1:

Eb|--------------------------------x-x--x------x-x--x------x-x--x-----|
Bb|-----8-7-8-7-8-7-8-10--8-7-8-7--3-3--3------5-5--5------7-7--7-----|
F#|-0-0----------------------------x-x--x------x-x--x------x-x--x-----|
C#|--------------------------------2-2--2-x6---3-3--3-x6---5-5--5-x6--|
G#|-------------------------------------------------------------------|
Eb|-------------------------------------------------------------------|x2

Guitarra 2:

Eb|---------------------------------------------------------------------|
Bb|-----8-8-8-8-8-7-7-7-7-8-7-8-8---------------------------------------|
F#|--------------------------------7-7--7------9-9--9------11-11--11----|
C#|--------------------------------x-x--x------x-x--x------x--x---x-----|
G#|--------------------------------5-5--5------7-7--7------9--9---9-----|
Eb|--------------------------------x-x--x-x6---x-x--x-x6---x--x---x-x6--|x2

                                              Vuelveeeeeeeeeee!!!!!!

Out:

Guitarra 1:
                                    F#6

Eb|----------------------------------0--|
Bb|------8-7-8-7-8-7-8-10--8-7-8-7---3--|
F#|--0-0-----------------------------0--|
C#|----------------------------------0--|
G#|-------------------------------------|
Eb|-------------------------------------|

Guitarra 2:

Eb|----------------------------------0--|
Bb|----------------------------------3--|
F#|------8-8-8-8-8-7-7-7-7-8-7-8-8---0--|
C#|----------------------------------0--|
G#|-------------------------------------|
Eb|-------------------------------------|

Tabbed By: Charly
Hummersqueal Fan #1

            
            
Suggest correction
Creating personal tab
Creating personal tab
You can edit any tab online and save it as your Personal.

You can edit, replace or remove any tab part or add personal notes – all changes will be seen only by you.

Personal tabs can be accessed anytime from any device, even offline.
Learn more »
Give kudos to tab author, rate the tab!
1 2 3 4 5
comments
print report bad tab
guest
Wanna post a correction for this tab? Suggest correction