Oops, an error
Loading. Please wait.

Rayo tab

35 views 1 this week
no commentswrite comment
1 2 3 4 5
3 more votes to show rating
add to favorites
×
Save as Personal and add changes to this tab that will be seen only by you. Learn more ›
×
You can save this tab as Personal to edit and correct it or add notes. All changes will be seen only by you. Learn more »
launch autoscroll
font size
0
reset
how to read this tab
guitar tuner
edit
Autoscroll
slow
fast
+/-
esc
set tempo
stop
/     Slide
...   Las veces que sea necesario
x     Mute
P.M.  Palm Mute
P     Pull off
H     Hammer on
xX    X Veces
UP    Jalar la cuerda hacia arriba

Tuning: Standard Eb (medio tono abajo)


Intro:

Guitarra 1:

     Eb             F#m            G#m            Bm
Eb|----------------------------------------------------------------|
Bb|----------------------------------------------------------------|
F#|--1-1--x---x-----3-3--x---x-----5-5--x---x-----8--8---x---x-----|
C#|--2-2--x---x-----5-5--x---x-----7-7--x---x-----10-10--x---x-----|
G#|--2-2--x-x-x-----5-5--x-x-x-----7-7--x-x-x-----10-10--x-x-x-----|
Eb|--0-0--x-x-x...--3-3--x-x-x...--5-5--x-x-x...--8--8---x-x-x...--| x2

Guitarra 2:

Eb|----------------------------------------------------------------|
Bb|----------------------------------------------------------------|
F#|----------------------------------------------------------------|
C#|--2-2------------5-5------------7-7------------10-10------------|
G#|--2-2------------5-5------------7-7------------10-10------------|
Eb|--0-0------------3-3------------5-5------------8--8-------------|


Guitarra 1:

Bm - F#m - Bm - F#m - Bm


Guitarra 2:

Eb|----------------------------------------------------------------|
Bb|----------12...-8...-10-10-8-8-7-7-8-8-10-10-8-8-7-7-8-8-15...--|
F#|----------------------------------------------------------------|
C#|----------------------------------------------------------------|
G#|----------------------------------------------------------------|
Eb|----------------------------------------------------------------|x2


Quisiera estar               Siempre voy a ver por ti
Contigo                      Puedes contar conmigo
Todo el tiempo


Qisiera estar                Siempre voy a estar
Contigo                      Puedo contar contigo
Por siempre, siempre!!!


Guitarras 1 y 2:

      F#m
Eb|---------|
Bb|---------|
F#|---------|
C#|----5----|
G#|----5----|
Eb|----3----|
      P.M.


Juntos por siempre
Por siempre

Juntos por siempre
Por siempre, siempre!!!


Bridge:

Eb|------------------|
Bb|-/12 x5--/15 x10--|
F#|------------------|
C#|------------------|
G#|------------------|
Eb|------------------|


--SOLO--

Guitarra 1:

Eb|------------------------------------|   |------------------|
Bb|--8-7-7-10-7-7-8-7-7-10-7-7-8-7-8-7-|   |-/12 x5--/15 x10--|
F#|------------------------------------|   |------------------|
C#|------------------------------------|   |------------------|
G#|------------------------------------|   |------------------|
Eb|------------------------------------|x3 |------------------|         x2

Guitarra 2:

Eb|--10UP-10------7------10UP--10----7-|   |-10UP-10-|    |--7--|
Bb|------------------------------------|   |---------|    |-----|
F#|------------------------------------|   |---------|    |-----|
C#|------------------------------------|   |---------|    |-----|
G#|------------------------------------|   |---------|    |-----|
Eb|------------------------------------|   |---------| x3 |-----|


Guitarra 1:

Eb|------------------------------------|
Bb|-12--10/8-8/7--7-8--10-8-7-8-10-8-7-|
F#|------------------------------------|
C#|------------------------------------|
G#|------------------------------------|
Eb|------------------------------------|x3

Eb|-----------------------------------------------|
Bb|-7-7/8-8--8-8/10-10--10-10/12-12--12-12/15-15/-|
F#|-----------------------------------------------|
C#|-----------------------------------------------|
G#|-----------------------------------------------|
Eb|-----------------------------------------------|


Eb|--------------------------------------|
Bb|-(12)--10/8-8/7--7-8--10-8-7-8-10-8-7-|
F#|--------------------------------------|
C#|--------------------------------------|
G#|--------------------------------------|
Eb|--------------------------------------|

Eb|--8H10-8-7--|    |--10-10H12-12--|    |--15-/12/10/8/7-|
Bb|------------|    |---------------|    |----------------|
F#|------------|    |---------------|    |----------------|
C#|------------|    |---------------|    |----------------|
G#|------------|    |---------------|    |----------------|
Eb|------------|x4  |---------------|x4  |----------------|

            
            
Suggest correction
Creating personal tab
Creating personal tab
You can edit any tab online and save it as your Personal.

You can edit, replace or remove any tab part or add personal notes – all changes will be seen only by you.

Personal tabs can be accessed anytime from any device, even offline.
Learn more »
Give kudos to tab author, rate the tab!
1 2 3 4 5
comments
print report bad tab
guest
Wanna post a correction for this tab? Suggest correction