Oops, an error
Loading. Please wait.

Stories With Unhappy Endings tab

version 3
version 3

Whole song

Interactive

501 views 1 this week
1 commentread comment
1 2 3 4 5
1 last vote to show rating
add to favorites
×
Save as Personal and add changes to this tab that will be seen only by you. Learn more ›
×
You can save this tab as Personal to edit and correct it or add notes. All changes will be seen only by you. Learn more »
launch autoscroll
font size
0
reset
how to read this tab
guitar tuner
edit
Autoscroll
slow
fast
+/-
esc
set tempo
stop
So here I am again, this is my second tab only. If you haven't seen the first one 
(I Slept With Someone In Fallout Boy...), go check it out. It's got some info on 
they way I do things.

Also for this tab, there are ZERO videos of Hundred Reasons playing it on youtube, 
and ZERO covers of it (though there may be some after I post this tab ;] ). So 
some of it will probably sound (and be) wrong, but I learned it all by ear, so 
those of you out there reading this that say "I learned it by ear so I don't have 
tabs!", stop being so effing lazy.

That said, let's get started shall we?

==========
PRE-INTRO (0:00)
----------

G1
P1
e|--------------3-3-3-3-3-3-------------3-3-3-3-3-3-|
B|--------------6-6-6-6-6-6-------------6-6-6-6-6-6-|
G|--------------------------------------------------|
D|--5-5-5-7-7-7-------------5-5-5-7-7-7-------------|
A|--5-5-5-7-7-7-------------5-5-5-7-7-7-------------|
D|--5-5-5-5-5-5-------------5-5-5-5-5-5-------------|
    . . . . . .             . . . . . .

G1
P2
e|--------------3-3-3-3-3-3-------------3-3-3-3-3-3-|x2
B|--------------5-5-5-5-5-5-------------4-4-4-4-4-4-|
G|--------------------------------------------------|
D|--3-3-3-5-5-5-------------3-3-3-5-5-5-------------|
A|--3-3-3-5-5-5-------------3-3-3-5-5-5-------------|
D|--3-3-3-3-3-3-------------3-3-3-3-3-3-------------|
    . . . . . .             . . . . . .

----------
END PRE-INTRO (0:16)
==========
INTRO (0:16)
----------

Guitar one plays the PRE-INTRO again, while guitar 2...

G2
P1
e|----------------------------------|
B|----------------------------------|
G|----------------------------------|
D|--5-5-5-5-5-5-5-5-5-5-5-5---5-5-5-|
A|--5-5-5-5-5-5-5-5-5-5-5-5---5-5-5-|
D|--5-5-5-5-5-5-5-5-5-5-5-5---5-5-5-|
    . . ^ . . . ^ ^ . . ^ .   . ^ ^

G2
P2
e|----------------------------------|x2
B|----------------------------------|
G|----------------------------------|
D|--3-3-3-3-3-3-3-3-3-3-3-3---3-3-3-|
A|--3-3-3-3-3-3-3-3-3-3-3-3---3-3-3-|
D|--3-3-3-3-3-3-3-3-3-3-3-3---3-3-3-|
    . . ^ . . . ^ ^ . . ^ .   . ^ ^

----------
END INTRO (0:31)
==========
VERSE 1 (0:31)
----------

G1
e|--10-10-10-10-10-10-11-11-11-11-11-11-15-15-15-15-15-15-15-15-15-15-15-15-|x6
B|--10-10-10-10-10-10-10-10-10-10-10-10-13-13-13-13-13-13-13-13-13-13-13-13-|
G|--- -- -- -- -- -- -- -- -- -- -- -- -- -- -- -- -- -- -- -- -- -- -- -- -|
D|--- -- -- -- -- -- -- -- -- -- -- -- -- -- -- -- -- -- -- -- -- -- -- -- -|
A|--- -- -- -- -- -- -- -- -- -- -- -- -- -- -- -- -- -- -- -- -- -- -- -- -|
D|--- -- -- -- -- -- -- -- -- -- -- -- -- -- -- -- -- -- -- -- -- -- -- -- -|

On times 2, 4, and 6, at the end of G1's part, G2 does...

G2
e|--------|
B|--------|
G|--------|
D|--5-0-0-|
A|--5-0-0-|
D|--5-0-0-|
        ^

Listen to the song for the timing of this.

Then, G1 has this harmonic bit... I can't quite figure it out, but you can replace 
it with this, which sounds close (IMO).

G1
e|--12-12-12-12-12-12-12-12-12-12-12-12-12-12-12-12-12-12-12-12-12-12-12-12-|x2
B|--12-12-12-12-12-12-12-12-12-12-12-12-12-12-12-12-12-12-12-12-12-12-12-12-|
G|--- -- -- -- -- -- -- -- -- -- -- -- -- -- -- -- -- -- -- -- -- -- -- -- -|
D|--- -- -- -- -- -- -- -- -- -- -- -- -- -- -- -- -- -- -- -- -- -- -- -- -|
A|--- -- -- -- -- -- -- -- -- -- -- -- -- -- -- -- -- -- -- -- -- -- -- -- -|
D|--- -- -- -- -- -- -- -- -- -- -- -- -- -- -- -- -- -- -- -- -- -- -- -- -|
    .  .  .  .  .  .  .  .  .  .  .  .  .  .  .  .  .  .  .  .  .  .  .  .

Through out this you can bend the strings to get a different sound, just as long 
as by the end, the bend is released, and you start to stop the palm muting. G2 
follows the end of this with...

G2
e|----------------------------|
B|----------------------------|
G|----------------------------|
D|--5-0>-0>-10-10-10-10-10-10-|
A|--5-0>-0>-10-10-10-10-10-10-|
D|--5-0>-0>-10-10-10-10-10-10-|

----------
END VERSE 1 (1:03)
==========
CHORUS 1 (1:03)
----------

G1's part I can't really tell what it is, but people who I've asked say that it's 
just three notes, as below...

G1
e|--0-----3-----0-----3-----5-----7-----5-----3-----|x2
B|----1-----1-----1-----1-----6-----6-----6-----6---|
G|------2-----2-----2-----2-----5-----5-----5-----5-|
D|--------------------------------------------------|
A|--------------------------------------------------|
D|--------------------------------------------------|

The other way I think it could be played is...

G1
e|--0---------3-| (continue like this with the rest of the e notes).
B|------1---1---|
G|----2---2-----|
D|--------------|
A|--------------|
D|--------------|

...or maybe...

G1                G1
e|--0-------| and e|--5-------|
B|----1-----|     B|----6-----|
G|------2---|     G|------5---|
D|--------3-|     D|--------7-|
A|----------|     A|----------|
D|----------|     D|----------|

...so yeah. It's pretty hard to hear. Listen to the song for the timings.

After that, assuming the part is even there, G1 repeats something like this (and 
you can vary it based on my notes above, just as long as you keep it the same as 
what you did for the rest of the chorus)...

G1
e|--0-----|x8
B|----1---|
G|------2-|
D|--------|
A|--------|
D|--------|

Otherwise, just play the same thing as G2 (see below).

After that, G1 plays the first half of the PRE-INTRO.

G2 immediately starts playing this after the end of its part in VERSE 1:

G2
P1
e|----------------------------------------------|
B|----------------------------------------------|
G|----------------------------------------------|
D|--0>-0-0-0-0-0>-0-0-0-0-0>-0-0-0-0-0>-0-0-0-0-|
A|--0>-0-0-0-0-0>-0-0-0-0-0>-0-0-0-0-0>-0-0-0-0-|
D|--0>-0-0-0-0-0>-0-0-0-0-0>-0-0-0-0-0>-0-0-0-0-|

G2
P2
e|----------------------------------------------|x2
B|----------------------------------------------|
G|----------------------------------------------|
D|--3>-3-3-3-3-5>-5-5-5-5-7>-7-7-7-7-9>-9-9-9-9-|
A|--3>-3-3-3-3-5>-5-5-5-5-7>-7-7-7-7-9>-9-9-9-9-|
D|--3>-3-3-3-3-5>-5-5-5-5-7>-7-7-7-7-9>-9-9-9-9-|

G2
e|--- -- -- -- -- -- ----------|x3
B|--- -- -- -- -- -- ----------|
G|--- -- -- -- -- -- ----------|
D|--10-10-10-10-10-10-0>-0>-0>-|
A|--10-10-10-10-10-10-0>-0>-0>-|
D|--10-10-10-10-10-10-0>-0>-0>-|

G2
e|--------------------------|
B|--------------------------|
G|--------------------------|
D|--5-5-5-5-5-5-5-5-5-5-5-5-|
A|--5-5-5-5-5-5-5-5-5-5-5-5-|
D|--5-5-5-5-5-5-5-5-5-5-5-5-|

G2
e|----------|x2 (fit this in during the part G1 plays of the PRE-INTRO).
B|----------|
G|----------|
D|--5-5-5-5-|
A|--5-5-5-5-|
D|--5-5-5-5-|
    . . . .
----------
END CHORUS (1:29)
==========
VERSE 2 (1:29)
----------

All of this verse is the same up to where G1 does the "harmonics" part at 12.

At that point, slide your hands or the pick up and down the fretboard in time with 
the song, and end on:

e|----------|
B|----------|
G|----------|
D|--5-5-5-5-|
A|--5-5-5-5-|
D|--5-5-5-5-|
    + + + +

G2's part is the same. Again, LISTEN TO THE SONG FOR TIMING.

----------
END VERSE 2 (2:01)
==========
CHORUS 2 (2:01)
----------
Same as CHORUS 1, but G2 does:

G2
e|--- -- -- -- -- -- ----------|x3\
B|--- -- -- -- -- -- ----------|   \
G|--- -- -- -- -- -- ----------|    \
D|--10-10-10-10-10-10-0>-0>-0>-|     \
A|--10-10-10-10-10-10-0>-0>-0>-|     x2 (this section is played twice)
D|--10-10-10-10-10-10-0>-0>-0>-|     /
                                    /
G2                                 /
e|--------------------------|     /
B|--------------------------|    /
G|--------------------------|   /
D|--5-5-5-5-5-5-5-5-5-5-5-5-|  /
A|--5-5-5-5-5-5-5-5-5-5-5-5-| /
D|--5-5-5-5-5-5-5-5-5-5-5-5-|/

...and ends on:

G2
e|--------------------|
B|--------------------|
G|--------------------|
D|--3>-3>-3>-3>-3>-3>-|
A|--3>-3>-3>-3>-3>-3>-|
D|--3>-3>-3>-3>-3>-3>-|
----------
END CHORUS 2 (2:34)
==========
PRE-INTERLUDE (2:34)
----------

G1
P1
e|--- ---- -------------- -|x3
B|--- ---- -------------- -|
G|--- ---- -------------- -|
D|--- ---- -------------- -|
A|--- ---- -------------- -|
D|--10p9-12p9-9-9-9-9-9h10-|
              ^ ^ ^ ^

G1
P2
e|--- ----- ----------|x1
B|--- ----- ----------|
G|--- ----- ----------|
D|--- ----- ----------|
A|--- ----- ----------|
D|--10p9--12p9-9h5-5~-|

Then, when Colin (lead singer) screams "WELL COME ON!!" G2 plays this just before 
the interlude...

G2
P1
e|-------------------------|x1
B|-------------------------|
G|-------------------------|
D|-5-5-5-5-5-5-5-5-5-5-5-5-|
A|-5-5-5-5-5-5-5-5-5-5-5-5-|
D|-5-5-5-5-5-5-5-5-5-5-5-5-|
   . . . . . . . . . . . .
----------
END PRE-INTERLUDE (2:44)
==========
INTERLUDE (2:44)
----------   

G1
P1
e|--- ---- -------------- -|x3
B|--- ---- -------------- -|
G|--- ---- -------------- -|
D|--10p9-12p9-9-9-9-9-9h10-|
A|--- ---- -------------- -|
D|--- ---- -------------- -|
              ^ ^ ^ ^

G1
P2
e|--- ----- ----------|x1
B|--- ----- ----------|
G|--- ----- ----------|
D|--10p9--12p9-9h5-5~-|
A|--- ----- ----------|
D|--- ----- ----------|

This is the base line as well, so I could be confusing the two parts for G2

G2
e|---|x16  e|---|x8  e|---|x8  e|---|x16  e|---|x8  e|---|x8
B|---|     B|---|    B|---|    B|---|     B|---|    B|---|
G|---|     G|---|    G|---|    G|---|     G|---|    G|---|
D|-9-|     D|-3-|    D|-7-|    D|-3-|     D|-0-|    D|-5-|
A|-9-|     A|-3-|    A|-7-|    A|-3-|     A|-0-|    A|-5-|
D|-9-|     D|-3-|    D|-7-|    D|-3-|     D|-0-|    D|-5-|Right after this part 
Colin yells "YEAH!!"
                                                       .

You'll have to listen for the timings; make sure to read my notes as well.

At the end of this (or the start of the OUTRO depending on how you look at it), do 
a pick slide on the low strings (D and A) starting at the end of the neck, and 
moving away from the headstock.
----------
END INTERLUDE (3:09)
==========
OUTRO (3:09)
----------

G1
e|-5-----7-----5-----3-----|x1
B|---6-----6-----6-----6---|
G|-----5-----5-----5-----5-|
D|-------------------------|
A|-------------------------|
D|-------------------------|

G2
e|----------------------------------------------|x1
B|----------------------------------------------|
G|----------------------------------------------|
D|--3>-3-3-3-3-5>-5-5-5-5-7>-7-7-7-7-9>-9-9-9-9-|
A|--3>-3-3-3-3-5>-5-5-5-5-7>-7-7-7-7-9>-9-9-9-9-|
D|--3>-3-3-3-3-5>-5-5-5-5-7>-7-7-7-7-9>-9-9-9-9-|

The above starts after the pick slides (right after Colin sings "These are my 
words for you so listen", and right as he sings "carefully!").

G1
e|--0-----3-----0-----3-----5-----7-----5-----3-----|x1
B|----1-----1-----1-----1-----6-----6-----6-----6---|
G|------2-----2-----2-----2-----5-----5-----5-----5-|
D|--------------------------------------------------|
A|--------------------------------------------------|
D|--------------------------------------------------|

G2
P1
e|----------------------------------------------|
B|----------------------------------------------|
G|----------------------------------------------|
D|--0>-0-0-0-0-0>-0-0-0-0-0>-0-0-0-0-0>-0-0-0-0-|
A|--0>-0-0-0-0-0>-0-0-0-0-0>-0-0-0-0-0>-0-0-0-0-|
D|--0>-0-0-0-0-0>-0-0-0-0-0>-0-0-0-0-0>-0-0-0-0-|

G2
P2
e|----------------------------------------------|x1
B|----------------------------------------------|
G|----------------------------------------------|
D|--3>-3-3-3-3-5>-5-5-5-5-7>-7-7-7-7-9>-9-9-9-9-|
A|--3>-3-3-3-3-5>-5-5-5-5-7>-7-7-7-7-9>-9-9-9-9-|
D|--3>-3-3-3-3-5>-5-5-5-5-7>-7-7-7-7-9>-9-9-9-9-|

Then...

G2
P1
e|--- -- -- -- -- -- ----------|x3
B|--- -- -- -- -- -- ----------|
G|--- -- -- -- -- -- ----------|
D|--10-10-10-10-10-10-0>-0>-0>-|
A|--10-10-10-10-10-10-0>-0>-0>-|
D|--10-10-10-10-10-10-0>-0>-0>-|

G2
P2
e|--------------------------|
B|--------------------------|
G|--------------------------|
D|--5-5-5-5-5-5-5-5-5-5-5-5-|
A|--5-5-5-5-5-5-5-5-5-5-5-5-|
D|--5-5-5-5-5-5-5-5-5-5-5-5-|

G2
P3
e|--- -- -- -- -- -- ----------|x3
B|--- -- -- -- -- -- ----------|
G|--- -- -- -- -- -- ----------|
D|--10-10-10-10-10-10-0>-0>-0>-|
A|--10-10-10-10-10-10-0>-0>-0>-|
D|--10-10-10-10-10-10-0>-0>-0>-|

G2
P4
e|--- -- -- -- -- -- -- -- -- -- -- -- -|
B|--- -- -- -- -- -- -- -- -- -- -- -- -|
G|--- -- -- -- -- -- -- -- -- -- -- -- -|
D|--10-10-10-10-10-10-10-10-10-10-10-10-|
A|--10-10-10-10-10-10-10-10-10-10-10-10-|
D|--10-10-10-10-10-10-10-10-10-10-10-10-|

As I said above, during these last parts for G2, I can't tell what G1 is doing. 
It's probably either the same thing as G2, or the parts it was previously doing, 
just quieter. The song also seems to end on a lower chord than an open strum in 
drop D, which means the song might be a half step down from there as well. I 
tabbed this in Drop D though, and all the rest sounds right to me.

            
            
Suggest correction
Creating personal tab
Creating personal tab
You can edit any tab online and save it as your Personal.

You can edit, replace or remove any tab part or add personal notes – all changes will be seen only by you.

Personal tabs can be accessed anytime from any device, even offline.
Learn more »
Give kudos to tab author, rate the tab!
1 2 3 4 5
comments
print report bad tab
1 comment total.
0 reply
JAStewart 7,264 Aug 02, 2014 07:04 AM

Clearly wrong.

guest
You may want to rate the tab now too:
select rating
Wanna post a correction for this tab? Suggest correction