Oops, an error
Loading. Please wait.

Invisible tab

version 1
version 1

Whole song

1,756 views 1 this week
no commentswrite comment
1 2 3 4 5
x 4
add to favorites
×
Save as Personal and add changes to this tab that will be seen only by you. Learn more ›
×
You can save this tab as Personal to edit and correct it or add notes. All changes will be seen only by you. Learn more »
launch autoscroll
font size
0
reset
how to read this tab
guitar tuner
edit
Autoscroll
slow
fast
+/-
esc
set tempo
stop
Invisible by Hunter Hayes

This is my second tab. :) I dedicate this song to Sheena, sana po magustuhan nyo.
Just listen na lang po sa song para masundan. May suggestion or may dapat i-fix 
comment lang po kayo and don't forget to rate :) Thank you po.

Tabbed by LeoGones
Email: leoalonzogonesjr@gmail.com
Facebook account: https://www.facebook.com/leo.gones

Tuning: Standard                  Chord used: C, F, G , Am , Dm
CAPO: 1ST FRET 

--------------------------------------------------------------------------------------------------
Intro

            C                                      F                  
e|----------1--------0---------1--0--------0-------1--------0-----------------3--1-----|
B|-------1--1---------------------------3-------------------------------1--3-----------|
G|---0------0-----------------------------------------------------------2--------------|
D|-------------------------------------------------3-----------------------------------|
A|----------3--3--3--3---3--3--3--3--3--3--3-------------------------------------------|
E|-------------------------------------------------1--1--1--1--1--1--1--------1--1-----|

e|--0-----0------|
B|-----3---------|
G|---------------|
D|---------------|
A|---------------|
E|--1--1--1------|

--------------------------------------------------------------------------------------------------
VERSE 1
  

      C                                Am          
      Crowded Hallways are the lone... outcasts and rebels Or anyone who just dares
e|---------------------1------0--------------------------------------------|
B|----1-----------------------1---------3------1---------3------1----------|
G|----0------0---------0----------------2------2---------2------2----------|
D|-----------2-------------------------------------------------------------|
A|----3-3-3--3-3-3-3-3-3-3-3--3-3-3-3-3-0-0-0--0-0-0-0-0-0-0-0--0-0-0-0-0--|
E|-------------------------------------------------------------------------|

      F
      to be different
e|------------------------------------------|
B|------------------------------------------|
G|----2------0----------2------0------------|
D|----3------3----------3------3------------|
A|------------------------------------------|
E|----1-1-1--1-1-1-1-1--1-1-1--1-1-1-1-1----|

And you've been
      C                                 Am
      trying for so long to find out... their narrow minds, there's no room for anyone
e|----1------0---------1------0--------------------------------------------|
B|-----------1----------------1---------3------1---------3------1----------|
G|----0----------------0----------------2------2---------2------2----------|
D|-------------------------------------------------------------------------|
A|----3-3-3--3-3-3-3-3-3-3-3--3-3-3-3-3-0-0-0--0-0-0-0-0-0-0-0--0-0-0-0-0--|
E|-------------------------------------------------------------------------|
  
who   
      F                                       G
 dares to do something different|Oh but listen for a minute
e|----0-------------------------0--0-------------------------------------------------|
B|-----------3----------1---3----------3------1------0----------1------3-------------|
G|----2------2---------------------2----------0------0--------0----------------------|
D|--------------------------------------------0------0-------------------------------|
A|-----------------------------------------------------------------------------------|
E|----1-1-1--1-1-1-1-1-------------1-1-1-1-1--3-3-3--3--3-3-3---3-3-3--3-3-3-3-3-----|

 

--------------------------------------------------------------------------------------------------

CHORUS (strum)

C                                                             
Trust the one who's been where you are wishing all it was 
F
sticks and stones
                                                Dm
Those words cut deep but they don't mean you're all alone
       G
You're not invisible
C
Hear me out, there's so much more to life than what you're 
F
feeling now Someday you'll look back on all these 
Dm                                 G
days and all this pain is gonna be... 
               
Invisible

      C                                            F
                                Oh, invisible                                    
e|---1--0-----------0-----1--0-----------0---------3--0-----------0----3--1--0---------|
B|------------3--------------------3------------------------3--------------------3-----|
G|-------------------------------------------------------------------------------------|
D|-------------------------------------------------------------------------------------|
A|---3--3--3--3--3--3--3--3--3--3--3--3--3--3--3---------------------------------------|
E|-------------------------------------------------1--1--1--1--1--1--1--1--1--1--1-----|

e|-----0-----------|
B|-----------------|
G|-----------------|
D|-----------------|
A|-----------------|
E|--1--1--1--1-----|

--------------------------------------------------------------------------------------------------

VERSE 2

        C
So your confidence is quiet To them quiet looks like weakness 

e|--------------------------------|
B|------------------8----5--------|
G|---7-----9----------------------|
D|--------------------------------|
A|--------------------------------|
E|--------------------------------|

    Am
but you don't have to fight it Cause you're strong enough to win 
   F
without the war
e|------------------------------------|
B|----------------------8------5------|
G|--4h5-----7/9-----------------------|
D|------------------------------------|
A|------------------------------------|
E|------------------------------------|

C
Every heart has a rhythm, let yours beat out so loudly
e|--------------------|
B|--12b~------10b~----|
G|--------------------|
D|--------------------|
A|--------------------|
E|--------------------|

Am
That everyone can hear it,

yeah, promise you don't need to 
        F
hide it anymore

e|----12~----10~----12~----12~----10~----12~----10~----8~---10~-|
B|--------------------------------------------------------------|
G|--------------------------------------------------------------|
D|--------------------------------------------------------------|
A|--------------------------------------------------------------|
E|--------------------------------------------------------------|
                                           G
Oh, and never be afraid of doing something different

Dare to be something more

--------------------------------------------------------------------------------------------------
CHORUS

C                                                             
Trust the one who's been where you are wishing all it was
F
sticks and stones
                                                Dm
Those words cut deep but they don't mean you're all alone
           G
You're not invisible
C
Hear me out, there's so much more to life than what you're 
F
feeling now Someday you'll look back on all these 
Dm                                    G
days and all this pain is gonna be... 
              C
Invisible

e|-------------------------------------------------------------------------------------|
B|----13--15----13---13---15—----13--15----13---13---15------13--15----13---13---15----|
G|-------------------------------------------------------------------------------------|
D|-------------------------------------------------------------------------------------|
A|-------------------------------------------------------------------------------------|
E|-------------------------------------------------------------------------------------|

e|-------------------------------------------------------------------------------------|
B|----13--15----13---13---15----15---15p13--15---15p13--15---15p13--15---15p13---------|
G|-------------------------------------------------------------------------------------|
D|-------------------------------------------------------------------------------------|
A|-------------------------------------------------------------------------------------|
E|-------------------------------------------------------------------------------------|

--------------------------------------------------------------------------------------------------

 BRIDGE 

       F                                                           C
These labels that they give you just 'cause they don't understand
Am
If you look past this moment, you'll see you've got a friend
         F
Waving a flag, for who you are, and all you're gonna do
         G
Yeah, so here's to you and here's to anyone who's ever felt 
   C             F          
invisible   

--------------------------------------------------------------------------------------------------
Adlib: 

e|----------------------12~---------------------------12~-------------12~--------13~---|
B|-----13--15b~--13h15----------13----15b~---13h15------------13/15-------15-----------|
G|--12---------------------12----------------------------------------------------------|
D|-------------------------------------------------------------------------------------|
A|-------------------------------------------------------------------------------------|
E|-------------------------------------------------------------------------------------|
                            Dm
                       Yeah....
e|-----------12--12-------13~-----15b~----13/12--10---------------12--13---15--17--15~-|
B|-13h15--------------15-------------------------------13----15------------------------|
G|-------------------------------------------------------------------------------------|
D|-------------------------------------------------------------------------------------|
A|-------------------------------------------------------------------------------------|
E|-------------------------------------------------------------------------------------|

       C   G      
You're not invisible

--------------------------------------------------------------------------------------------------
CHORUS

C
Hear me out, there's so much more to life than what you're 
F
feeling now Someday you'll look back on all these 
Dm                F               G
days and all this pain is gonna be... 

--------------------------------------------------------------------------------------------------
(Play INTRO Again)

C             
Invisible
         F          C
It'll be invisible

(end)
--------------------------------------------------------------------------------------------------

*************************************************************************************************
| b - string bend                    
| ~ - vibrato
| h - hammer on
| p - pull off
| / - slide
| b~ - bending vibrato
**************************************************************************************************

            
            
Suggest correction
Creating personal tab
Creating personal tab
You can edit any tab online and save it as your Personal.

You can edit, replace or remove any tab part or add personal notes – all changes will be seen only by you.

Personal tabs can be accessed anytime from any device, even offline.
Learn more »
comments
print report bad tab
guest
You may want to rate the tab now too:
select rating
Wanna post a correction for this tab? Suggest correction