Oops, an error
Loading. Please wait.

Better bass

by Hurt
1,952 views 3 this week
2 commentsread comments
1 2 3 4 5
1 last vote to show rating
add to favorites
×
Save as Personal and add changes to this tab that will be seen only by you. Learn more ›
×
You can save this tab as Personal to edit and correct it or add notes. All changes will be seen only by you. Learn more »
launch autoscroll
font size
0
reset
guitar tuner
edit
Autoscroll
slow
fast
+/-
esc
set tempo
stop
Author
Difficulty
-------------------------------------------------------------------------------
			     BETTER - HURT
-------------------------------------------------------------------------------

Tabbed By : Justin	
e-mail: Vicars19@live.com

Tuning: Standard

 Intro/Chorus (x2)

G|-------------------|-------------------|--------------------|-------------------|
D|-------------------|-------------------|--------------------|-------------------|
A|-12~-12/14~-13/15--|-12~-14br----------|-12~-12/14----------|-12~-12/10-8~------|
E|-------------------|----------13~------|-----------13~-13/15|-------------------|


Chorus (x2)
                   x2                  x2                   x2                  x2
G|-------------------|-------------------|--------------------|-------------------|
D|-------------------|-------------------|--------------------|-------------------|
A|-------------------|-------------------|-0-0-0-0-0-0-0-0----|-0-0-0-0-0-0-0-0---|
E|-8-8-8-8-8-8-8-8---|-3-3-3-3-3-3-3-3---|--------------------|-------------------|


Verse

G|--------------------|------------------|--------------------|-------------------|
D|--------------------|------------------|--------------------|-------------------|
A|-12~-12/14----------|-12~-12/14--------|-12~-12/14----------|-12~-12/14---------|
E|----------13~-13/15-|-----------13~----|----------13~-13/15-|----------13~------|


Chorus (x2)
                   x2                  x2                   x2                  x2
G|-------------------|-------------------|--------------------|-------------------|
D|-------------------|-------------------|--------------------|-------------------|
A|-------------------|-------------------|-0-0-0-0-0-0-0-0----|-0-0-0-0-0-0-0-0---|
E|-8-8-8-8-8-8-8-8---|-3-3-3-3-3-3-3-3---|--------------------|-------------------|


Bass Interlude

G|-------------------|-------------------|--------------------|-------------------|
D|-------------------|-------------------|--------------------|-------------------|
A|-------------------|-------------3h5p3-|--------------------|-------------------|
E|-1-1-3-3-5~--8-7-5-|-1-1-3-3-5~--------|-1-1-3-3-5~--8-7-5--|-1-1-3-3-5~--------|


Chorus (x3) W/ distorted guitars
                   x2                  x2                   x2                  x2
G|-------------------|-------------------|--------------------|-------------------|
D|-------------------|-------------------|--------------------|-------------------|
A|-------------------|-------------------|-0-0-0-0-0-0-0-0----|-0-0-0-0-0-0-0-0---|
E|-8-8-8-8-8-8-8-8---|-3-3-3-3-3-3-3-3---|--------------------|-------------------|


Bass Solo (x4)  3rd time through guitar kicks in

G|----------------------------------------|----------------------------------------|
D|-----10------12------14------14------12-|-----10------12------14------14------14-|
A|-0-8----0-10----0-12----0-12----0-10----|-0-8----0-10----0-12----0-12----0-12----|
E|----------------------------------------|----------------------------------------|


Chorus (x4)
                   x2                  x2                   x2                  x2
G|-------------------|-------------------|--------------------|-------------------|
D|-------------------|-------------------|--------------------|-------------------|
A|-------------------|-------------------|-0-0-0-0-0-0-0-0----|-0-0-0-0-0-0-0-0---|
E|-8-8-8-8-8-8-8-8---|-3-3-3-3-3-3-3-3---|--------------------|-------------------|

Bass Interlude 2  -  Not sure about this part

G|--------------------------------------------------------------------------------|
D|--------------------------------------------------------------------------------|
A|--------------------------------------------------------------------------------|
E|--------------------------------------------------------------------------------|


Outro
                    x2                   x2                   x2                   x2
G|-------------------|-------------------|--------------------|-------------------|
D|-------------------|-------------------|--------------------|-------------------|
A|-------------------|-------------------|-0-0-0-0-0-0-0-0----|-0-0-0-0-0-0-0-0---|
E|-8-8-8-8-8-8-8-8---|-3-3-3-3-3-3-3-3---|--------------------|-------------------|

G|-------------------|-------------------|--------------------|-------------------|
D|-------------------|-------------------|--------------------|-------------------|
A|-------------------|-------------------|--------------------|-------------------|
E|-8-8-8-8-8-8-8-8---|-3-3-3-3-3-3-3-3---|-5\-----------------|-------------------|




| /  slide up
| \  slide down
| h  hammer-on
| p  pull-off
| ~  vibrato
| +  harmonic

            
            
Suggest correction
Creating personal tab
Creating personal tab
You can edit any tab online and save it as your Personal.

You can edit, replace or remove any tab part or add personal notes – all changes will be seen only by you.

Personal tabs can be accessed anytime from any device, even offline.
Learn more »
Give kudos to tab author, rate the tab!
1 2 3 4 5
comments
print report bad tab
2 comments total.
+2 reply
sadsadtoaster 20 Sep 15, 2008 02:08 PM

I think in the first bar of the intro the 13/15 slide should be on the e string and not the a string, but other than that this tab is perfect.

0 reply
sadsadtoaster 20 Sep 15, 2008 02:08 PM

I think in the first bar of the intro the 13/15 slide should be on the e string and not the a string, but other than that this tab is perfect.

guest
You may want to rate the tab now too:
select rating
Wanna post a correction for this tab? Suggest correction