Oops, an error
Loading. Please wait.

Same Deep Water As Me tab

version 2
version 2

Whole song

659 views 39 this week
2 commentsread comments
1 2 3 4 5
x 3
add to favorites
×
Save as Personal and add changes to this tab that will be seen only by you. Learn more ›
×
You can save this tab as Personal to edit and correct it or add notes. All changes will be seen only by you. Learn more »
launch autoscroll
font size
0
reset
how to read this tab
guitar tuner
edit
Autoscroll
slow
fast
+/-
esc
set tempo
stop
Author
Difficulty
-------------------------------------------------------------------------------
                             Same Deep Water as Me – I Am Kloot
-------------------------------------------------------------------------------
Tabbed by: JohnJoe Walters
E-mail:johnjoewalters@hotmail.co.uk

(Solo acoustic arrangement as played live by I Am Kloot’s John Bramwell – see 
http://www.youtube.com/watch?v=fa0hmX6BO94)

Nb Lyrics are different from recorded version but most of music tab will apply to studio 
recorded version (or at least get you close).

Tuning:EADGBE

Capo: 2nd Fret

Chords: relative position i.e. Am = 002210 at position 2 = Bm

002210 Am
133211 F (sometimes played X33211)
332010 C
011000 Em (sometimes Em7 011030)
XX0210 Amadd11
XX3210 Fmaj7



Intro (X2):

e|---------------------------------|
B|------—--------------------------|
G|----5-5-5-/7------5-5-5-\4-0-----|
D|----7-7-7-/9-9----7-7-7-\5-0-----|
A|-0--0-0-0--0---0--0-0-0--0-------|
E|---------------------------------|

Verse 1:

Am               F
 Swim out to the ocean
Am                         F
 Drown your thoughts out at sea
C                          F
 And dip your hands in the water
Em                     F
 The same deep water as me
Am                        F
 I've been watching for cloudbursts
Am                       F
 I've been praying for rain
C                      F
 Drench my soul in the water
Em                      F
 Cleanse my heart of the stain
Em                      F
 Cleanse my heart of the stain


Instrumental ‘Chorus’

e|0---0---0---0---0---0--------|
B|1----1---1-------1---1-------|
G|2-----2---2-------2----------|
D|0------------0-3-------------|  X2
A|----------------------3-2-0--|
E|-----------------------------|

Then (loosely):

e|--0---0---0---0---0----0--0---0--0--------|
B|---1---1-------1---1----1--1—-1--1--------|
G|----2---2-------2--------2----2--2--0-----|
D|-0-----------3--------3-------3--3----0---|
A|------------------------------------------|
E|------------------------------------------|

i.e. Instrumental ‘Chorus’ in words:

Amadd11 Fmaj7
Then walk down notes C, B and A on 5th string (whole thing X 2)

Third time Amadd11 then stay on Fmaj7


Verse 2:

Am            F
 The river of love
Am                      F
 It flows deep through the night
C                      F
 Rolls you in with the waves
Em                     F
 Drags you out with the tides
Am                        F
 I've been watching for cloudbursts
Am                       F
 I've been praying for rain
C                      F
 Drench my soul in the water
Em                      F
 Cleanse my heart of the stain
Em                      F
 Cleanse my heart of the stain

Instrumental chorus
Then ‘instrumental’ verse (same chords with a bit of noodling)
Instrumental chorus

Outro (as intro):

e|---------------------------------|
B|------—--------------------------|
G|----5-5-5-/7------5-5-5-\4-0-----|
D|----7-7-7-/9-9----7-7-7-\5-0-----|
A|-0--0-0-0--0---0--0-0-0--0-------|
E|---------------------------------|

And ending on an Am:


e|---5----|
B|---5----|
G|---5----|
D|---7----|
A|--------|
E|--------|
Please enjoy!


************************************

| /   slide up
| \   slide down
| h   hammer-on
| p   pull-off
| ~   vibrato
| +   harmonic
| x   Mute note
| b   Bend
| pb  Pre-bend
| br  Bend release
| pbr Pre-bend release
| brb Bend release bend

************************************

            
            
Suggest correction
Creating personal tab
Creating personal tab
You can edit any tab online and save it as your Personal.

You can edit, replace or remove any tab part or add personal notes – all changes will be seen only by you.

Personal tabs can be accessed anytime from any device, even offline.
Learn more »
Give kudos to tab author, rate the tab!
1 2 3 4 5
comments
print report bad tab
2 comments total.
0 reply
watfordkev 1,662 Jun 14, 2014 01:24 PM

Lovely job! Thank you!

0 reply
iandaddio 10 2 days ago

nice tab thanks for haring

guest
You may want to rate the tab now too:
select rating
Wanna post a correction for this tab? Suggest correction