Oops, an error
Loading. Please wait.

Sharks In Your Mouth tab

version 1
version 1
12,756 views 9 this week
2 commentsread comments
1 2 3 4 5
2 more votes to show rating
add to favorites
×
Save as Personal and add changes to this tab that will be seen only by you. Learn more ›
×
You can save this tab as Personal to edit and correct it or add notes. All changes will be seen only by you. Learn more »
launch autoscroll
font size
0
reset
how to read this tab
guitar tuner
edit
Autoscroll
slow
fast
+/-
esc
set tempo
stop
sheesh. sharks in your mouth is their best song but all they have is guitar pro. so ill 
tabbing their song =]
i only have the intro down cuz its one of my few first tabs.
but enjoy

                   *first guitar*
C#--------------------------------------------------------------|
G#--------------------------------------------------------------|
E----7~----7~------7--7----7~----10--9--10---10~----10~---------|
B----x-----x-------x--x----x------x--x---x----x------x~---------|
F#---5~----5~------5--5----5~-----8--7---8----8~-----8~---------|
B---------------------------------------------------------------|

C#--------------------------------------------------------------|
G#--------------------------------------------------------------|
E---10-10----5--5----10--9--------------------------------------|
B----x--x----x--x-----x--x--------------------------------------|
F#---8--8----3--3-----8--7--------------------------------------|
B---------------------------------------------------------------|


                  *second guitar* (harmonizing)

C#--------------------------------------------------------------|
G#--------------------------------------------------------------|
E---10~----10~-----10--10---10~----14--12----14~----14~---------|
B----x------x~------x---x----x------x---x-----x------x----------|
F#---8~-----8~------8---8----8~----12--10----12~----12~---------|
B---------------------------------------------------------------|

C#--------------------------------------------------------------|
G#--------------------------------------------------------------|
E----9~-----9~------14--12--------------------------------------|
B----x------x--------x---x--------------------------------------|
F#---7~-----7~------12--10--------------------------------------|
B---------------------------------------------------------------|

PLAY TILL VERSE

verse

C#--------------------------------------------------------------|
G#--------------------------------------------------------------|
E---------------------------------------------------------------|
B---0-0--2-3-2-3-0-0-2-3-2-3-0-0-0-0-0--------------------------| x's 2
F#--0-0----------0-0---------0-0-0-0-0--------------------------|
B---0-0----------0-0---------0-0-0-0-0--------------------------|
    PM           PM       PM(palm mute tremolo it to make it sound better)

C#--------------------------------------------------------------|
G#--------------------------------------------------------------|
E---------------------------------------------------------------|
B---3-3--2-3-2-3-3-3-2-3-2-3-3-3-3-3-3--------------------------|
F#--3-3----------3-3---------3-3-3-3-3--------------------------|
B---3-3----------3-3---------3-3-3-3-3--------------------------|
    PM           PM              PM

C#--------------------------------------------------------------|
G#--------------------------------------------------------------|
E---------------------------------------------------------------|
B-------2-3-2-3-----2-3-2-3-----2-3-2-3-5-3-2-3-----------------|
F#--3-3---------3-3---------3-3---------------------------------|
B---------------------------------------------------------------|
    PM          PM          PM

listen carefully till second guitar joins harmonizing
(second guitar)

C#--------------------------------------------------------------|
G#--------------------------------------------------------------|
E---------------------------------------------------------------|
B---5-7-5-7---5-7-5-7--repeat---5-7-5-7-8-7-5-7*----------------|
F#--------------------------------------------------------------|
B---------------------------------------------------------------|
second guitar also does the palm muting power chords

the rest is going to be finished! i guarantee!

AIM - CyaNidexLandMine
EMAIL - dakrayzieaznboi@msn.com

http://ikilledthepromqueen.com/

            
            
Suggest correction
Creating personal tab
Creating personal tab
You can edit any tab online and save it as your Personal.

You can edit, replace or remove any tab part or add personal notes – all changes will be seen only by you.

Personal tabs can be accessed anytime from any device, even offline.
Learn more »
Give kudos to tab author, rate the tab!
1 2 3 4 5
comments
print report bad tab
2 comments total.
0 reply
imxron 44 Nov 20, 2006 01:43 PM

C#--------------------------------------------------------------|
G#--------------------------------------------------------------|
E---------------------------------------------------------------|
B---0-0--2-3-2-3-0-0-2-3-2-3-0-0-0-0-0--------------------------|
F#--0-0----------0-0---------0-0-0-0-0--------------------------|
B---0-0----------0-0---------0-0-0-0-0--------------------------|


this should be...

C#-----------------------------------------------------------|
G#-----------------------------------------------------------|
E------------------------------------------------------------|
B--0-0-0-0-3-2-3-0-0-0-0-3-2-3-0-0-0--0-0-0--0-0-0-0-3-2-3---|
F#-0-0-0---------0-0-0---------0-0-0--0-0-0--0-0-0-----------|
B--0-0-0---------0-0-0---------0-0-0--0-0-0--0-0-0-----------|

and so on

0 reply
|Matt| 252 Dec 14, 2008 04:27 AM

Finally someone has the intro right. I'd tab mine, but I can't be bothered right now. Maybe tomorrow.

Also, too many people are getting the verse wrong. Its

C#--------------------------------------------------------------|
G#--------------------------------------------------------------|
E---------------------------------------------------------------|
B---0-0----------0-0---------0-0-0-0-0--------------------------|
F#--0-0-7h8-5h8--0-0-7h8-5h8-0-0-0-0-0-xwhatever----------------|
B---0-0----------0-0---------0-0-0-0-0--------------------------|

then

C#-----------------------------------------------------|
G#-----------------------------------------------------|
E------------------------------------------------------|
B---0-0----------0-0-----------------------------------|
F#--0-0-7h8-5h8--0-0-7h8-5h8-10p8-7h8------------------|
B---0-0----------0-0-----------------------------------|

Enjoy.

guest
You may want to rate the tab now too:
select rating
Wanna post a correction for this tab? Suggest correction