Oops, an error
Loading. Please wait.

My Heart I Surrender tab

version 2
version 2

Whole song

Interactive

8,950 views 105 this week
1 commentread comment
1 2 3 4 5
x 21
add to favorites
×
Save as Personal and add changes to this tab that will be seen only by you. Learn more ›
×
You can save this tab as Personal to edit and correct it or add notes. All changes will be seen only by you. Learn more »
launch autoscroll
font size
0
reset
how to read this tab
guitar tuner
edit
Autoscroll
slow
fast
+/-
esc
set tempo
stop
The tuning is a whole step down. There are 4 chords in the whole song, played like this:

   C#m7      E5    Asus2   Bsus4
D|---0---|---0---|---0---|---0---|
A|---0---|---0---|---0---|---0---|
F|---6---|---9---|---2---|---4---|
C|---6---|---9---|---2---|---4---|
G|---4---|---7---|---0---|---2---|
D|-------|-------|-------|-------|


This can be heard during verses

D|--------<12>--|--------<12>-----11-------|
A|--<12>--------|--<12>-----------------12-|
F|--------------|--------------------------|
C|--------------|--------------------------|
G|--------------|--------------------------|
D|--------------|--------------------------|

Intro:
C#m7 C#m7 E5 Bsus4

[Verse 1]
                     C#m7
I'm a ghost in your eyes,
     E5            Bsus4        C#m7
A shadow you can't seem to recognize.
     E5             Bsus4        C#m7
I have a thought of you for every star in the sky,
      E5             Bsus4             C#m7
But I'm scared, I'll never cross your mind.
      E5          Bsus4 (one strum)
Yeah, I'm scared.

[Chorus]
C#m7
   Will our stars ever align?
Asus2
   Will two hearts beat in time?
E5
   These words you should always remember, 
Bsus4
   To you, my heart I surrender.
C#m7
   Chasing love that can never be mine.
Asus2
   Maybe one day you'll realize,
E5
   These words you should always remember, 
Bsus4
   To you, my heart I surrender.


First solo x2

D|----------------------------------------------|---------------------------------------------|
A|----------------------------------------------|---------------------------------------------|
F|--------9--11/13\11--9--------9--11/13\11--9--|--------9--11/13\11--9-----8----8--8\9--9--9-|
C|--9--9---------------------9------------------|--9--9---------------------9-----------------|
G|----------------------------------------------|---------------------------------------------|
D|----------------------------------------------|---------------------------------------------|

[Verse 2] (same as before)
And I can't count the times,
I stayed awake pretending you were mine.
Now I'm left here with this emptiness inside, 
Why can't I make you mine?

[Chorus] (again)
Will our stars ever align?
Will two hearts beat in time?
These words you should always remember, 
To you, my heart I surrender.
Chasing love that can never be mine.
Maybe one day you'll realize,
These words you should always remember, 
To you, my heart I surrender.

Second solo 
D|---------------------------------------------|---------------------------------------------|
A|-12-12-12------------------------------------|-14-14-14------------------------------------|
F|----------13-13-13-11-11-11-9-9-9-9/11-11-11-|----------13-13-13-11-11-11-9-9-9-9/11-11-11-|
C|---------------------------------------------|---------------------------------------------|
G|---------------------------------------------|---------------------------------------------|
D|---------------------------------------------|---------------------------------------------|


D|---------------------------------------------|---------------------------------------------|
A|-12-12-12------------------------------------|---------------------------------------------|
F|----------13-13-13-11-11-11-9-9-9-9/11-11-11-|-9-9-9-11-11-11-8-8-9-9-9-11-11-11-8-8-------|
C|---------------------------------------------|---------------------------------------------|
G|---------------------------------------------|---------------------------------------------|
D|---------------------------------------------|---------------------------------------------|

[Outro] (chorus again)
Will our stars ever align? (ever align)
Will two hearts, beat in time?
These words you should always remember, 
To you, my heart I surrender.
Chasing love that can never be mine (never be mine).
Maybe one day you'll realize,
These words you should always remember, 
To you, my heart I surrender.

            
            
Suggest correction
Creating personal tab
Creating personal tab
You can edit any tab online and save it as your Personal.

You can edit, replace or remove any tab part or add personal notes – all changes will be seen only by you.

Personal tabs can be accessed anytime from any device, even offline.
Learn more »
comments
print report bad tab
1 comment total.
0 reply
P_Trik 5,963 May 25, 2016 07:23 AM

Great job discerning the tuning and chords. Please complete your transcription. The small extra effort on your part will help the learning guitar players who depend on this transcription. 5 stars for accuracy.

guest
You may want to rate the tab now too:
select rating
Wanna post a correction for this tab? Suggest correction