Oops, an error
Loading. Please wait.

But The Nuns Are Watching tab

version 3
version 3

Whole song

2,816 views 1 this week
no commentswrite comment
1 2 3 4 5
1 last vote to show rating
add to favorites
×
Save as Personal and add changes to this tab that will be seen only by you. Learn more ›
×
You can save this tab as Personal to edit and correct it or add notes. All changes will be seen only by you. Learn more »
launch autoscroll
font size
0
reset
how to read this tab
guitar tuner
edit
Autoscroll
slow
fast
+/-
esc
set tempo
stop
Author
But the Nuns Are Watching  -- I Set My Friends On Fire

Drop C Tuning (Low to high - CGCFAD)

X-Mute
\-Slide Up
/-Slide Down
~-Vibrato/let ring
*-Pinch Harmonic


Intro
D|-----------------------------------------------------------------|
A|-------12\8-X-7h8-8-8-8-8-8-8-8----------------------------------|
F|-9p8p0------X----------------------------------------------------|
C|-----------------------------------------------------------------|  [X8]
G|-----------------------------------------------------------------|
C|-----------------------------------------------------------------|


D|-----------------------------------------------------------------|
A|-----------------------------------------------------------------|
F|-----------------------------------------------------------------|
C|-2-2--2-2-2--2--2--2-2-------------------------------------------|  [X2]
G|-2-2--2-2-2--2--2--2-2-------------------------------------------|
C|-2-2--2-2-2--2--2--2-2-------------------------------------------|


D|-----------------------------------------------------------------|
A|-------12\8-X-7h8-8-8-8-8-8-8-8----------------------------------|
F|-9p8p0------X----------------------------------------------------|
C|-----------------------------------------------------------------|  [X4]
G|-----------------------------------------------------------------|
C|-----------------------------------------------------------------|

Chorus
D|-----------------------------------------------------------------|
A|-----------------------------------------------------------------|
F|-----------------------------------------------------------------|
C|-2-2-22-/--5-5-555-/--7-7-77-7-7-7-7-77--------------------------|  [X2]
G|-2-2-22-/--5-5-555-/--7-7-77-7-7-7-7-77--------------------------|
C|-2-2-22-/--5-5-555-/--7-7-77-7-7-7-7-77--------------------------|



D|-----------------------------------------------------------------|
A|-----------------------------------------------------------------|
F|-----------------------------------------------------------------|
C|-22--XX--222--X--2--2--2-----------------------------------------|  [X4]
G|-22--XX--222--X--2--2--2-----------------------------------------|
C|-22--XX--222--X--2--2--2-----------------------------------------|

Bridge
D|-----------------------------------------------------------------|
A|-----------------------------------------------------------------|
F|-5-5-5-5-5-5-7-7-7-7-7-7-----------------------------------------|
C|-5-5-5-5-5-5-7-7-7-7-7-7--1--------------------------------------|  [X1]
G|-3-3-3-3-3-3-5-5-5-5-5-5--1--------------------------------------|
C|--------------------------1--------------------------------------|


D|-----------------------10---10---10~~~---------------------------|
A|-----------------------14---14------14~~~------------------------|
F|---------------------------------------12~~~---------------------|
C|-0------------------------0----0---------------------------------|  [X1]
G|-0-0-0-0-0-0-0-0-0-0------0----0---------------------------------|
C|-0-0-0-0-0-0-0-0-0-0------0----0---------------------------------|
   PM|----------------|    |-|  |-|


D|-----------------------10---10---10---10-------------------------|
A|-----------------------14---14---14---14-------------------------|
F|-----------------------------------------------------------------|
C|-0------------------------0----0----0----------------------------|  [X1]
G|-0-0-0-0-0-0-0-0-0-0------0----0----0----------------------------|
C|-0-0-0-0-0-0-0-0-0-0------0----0----0----------------------------|
   PM|----------------|    |-|  |-|  |-|


D|-----------------------10---10---10~~~---------------------------|
A|-----------------------14---14------14~~~------------------------|
F|---------------------------------------12~~~---------------------|
C|-0------------------------0----0---------------------------------|  [X1]
G|-0-0-0-0-0-0-0-0-0-0------0----0---------------------------------|
C|-0-0-0-0-0-0-0-0-0-0------0----0---------------------------------|
   PM|----------------|    |-|  |-|



D|-----------------------10---10---10---10-------------------------|
A|-----------------------14---14---14---14-------------------------|
F|-----------------------------------------------------------------|
C|-0------------------------0----0----0----------------------------|  [X1]
G|-0-0-0-0-0-0-0-0-0-0------0----0----0----------------------------|
C|-0-0-0-0-0-0-0-0-0-0------0----0----0----------------------------|
   PM|----------------|    |-|  |-|  |-|


D|-----------------------10---10---10~~~---------------------------|
A|-----------------------14---14------14~~~------------------------|
F|---------------------------------------12~~~---------------------|
C|-0------------------------0----0---------------------------------|  [X1]
G|-0-0-0-0-0-0-0-0-0-0------0----0---------------------------------|
C|-0-0-0-0-0-0-0-0-0-0------0----0---------------------------------|
   PM|----------------|    |-|  |-|


D|---------------------------10----10----10----10~-----------------|
A|------------------------------14----14----14----14~--------------|
F|-----------------------------------------------------------------|
C|-----------------------------------------------------------------|  [X1]  
G|-0000000000000000000---------------------------------------------|
C|-0000000000000000000---------------------------------------------|
PM|-------------------|


D|-----------------------10---10---10~~~---------------------------|
A|-----------------------14---14------14~~~------------------------|
F|---------------------------------------12~~~---------------------|
C|-0------------------------0----0---------------------------------|  [X1]
G|-0-0-0-0-0-0-0-0-0-0------0----0---------------------------------|
C|-0-0-0-0-0-0-0-0-0-0------0----0---------------------------------|
   PM|----------------|    |-|  |-|


D|-----------------------10----10----10----10~----10////--17~~~~---|
A|--------------------------14----14----14----14~------------------|
F|-----------------------------------------------------------------|
C|-----------------------------------------------------------------|  [X1]  
G|-0000000000000000000---------------------------------------------|
C|-0000000000000000000---------------------------------------------|
PM|-------------------|


Interlude
D|---------17-----14----------14----------|
A|--15--15-----15----14-15-14----15-14-15-|          ____
F|o---------------------------------------|             |
C|o---------------------------------------|             |
G|----------------------------------------|             |
C|----------------------------------------|             | 
                                                        |
                                                        | 
Interlude (cont.)                                       | [X4]
D|---------17----14----------14-----------|             | 
A|------------------14-15-14----15-14-----|             | 
F|---14--14----14------------------------o|             |
C|---------------------------------------o|          ___|
G|----------------------------------------|              
C|----------------------------------------|


Breakdown
D|-----------------------------------------------------------------|
A|-----------------------------------------------------------------|
F|----10-10---10-10---10---10-10---10\\----------------------------|
C|-00-14-14-0-14-14-0-14-0-14-14-0-14\\----------------------------| [X1] 
G|-00-------0-------0----0-------0---------------------------------|
C|-00-------0-------0----0-------0---------------------------------|



D|-----------------------------------------------------------------|
A|-----------------------------------------------------------------|
F|-----------------------------------------------------------------|
C|-////--0-0--00-00--0-0-------------------------------------------| [X3]  
G|-////--0-0--00-00--0-0-------------------------------------------|
C|-////--0-0--00-00--0-0-------------------------------------------|
  
**Slide First time only**


D|-----------------------------------------------------------------|
A|-----------------------------------------------------------------|
F|-----------------------10----------------------------------------|
C|-0-0--00-00--0-0-------14*---------------------------------------|  [X1]   
G|-0-0--00-00--0-0-------------------------------------------------|
C|-0-0--00-00--0-0-------------------------------------------------|
             Pinch Harmonic*


D|-----------------------------------------------------------------|
A|-----------------------------------------------------------------|
F|-----------------------10----------------------------------------|
C|-0-0--00-00--0-0----0--14----------------------------------------|  [X1]   
G|-0-0--00-00--0-0----0--------------------------------------------|
C|-0-0--00-00--0-0----0--------------------------------------------|
PM|---||---------------|


D|-----------------------------------------------------------------|
A|-----------------------------------------------------------------|
F|-----------------------10~~--------------------------------------|
C|-0-0--00-00--0-0----0-----14~~-----------------------------------|  [X1]   
G|-0-0--00-00--0-0----0--------------------------------------------|
C|-0-0--00-00--0-0----0--------------------------------------------|
PM|---||---------------|


D|-----------------------------------------------------------------|
A|-----------------------------------------------------------------|
F|-----------------------10----------------------------------------|
C|-0-0--00-00--0-0----0--14----------------------------------------|  [X1]   
G|-0-0--00-00--0-0----0--------------------------------------------|
C|-0-0--00-00--0-0----0--------------------------------------------|
PM|---||---------------|


D|-----------------------------------------------------------------|
A|-----------------------------------------------------------------|
F|-----------------------10----10----10----10~~~-------------------|
C|-0-0--00-00--0-0----0-----14----14----14----14~~~----------------|  [X1]   
G|-0-0--00-00--0-0----0--------------------------------------------|
C|-0-0--00-00--0-0----0--------------------------------------------|
PM|---||---------------|

Outro
D|-----------------------------------------------------------------|
A|-----------------------------------------------------------------|
F|-----10-10-----10-10---------------------------------------------|
C|-00--14-14-00--14-14-0~------------------------------------------|     
G|-00--------00--------0~------------------------------------------|
C|-00--------00--------0~------------------------------------------|
PM|--|      |--|      |-|










 

            
            
Suggest correction
Creating personal tab
Creating personal tab
You can edit any tab online and save it as your Personal.

You can edit, replace or remove any tab part or add personal notes – all changes will be seen only by you.

Personal tabs can be accessed anytime from any device, even offline.
Learn more »
Give kudos to tab author, rate the tab!
1 2 3 4 5
comments
print report bad tab
guest
You may want to rate the tab now too:
select rating
Wanna post a correction for this tab? Suggest correction