Oops, an error
Loading. Please wait.

Corpses In Their Mouths chords

127 views 15 this week
no commentswrite comment
1 2 3 4 5
3 more votes to show rating
add to favorites
×
Save as Personal and add changes to this tab that will be seen only by you. Learn more ›
×
You can save this tab as Personal to edit and correct it or add notes. All changes will be seen only by you. Learn more »
launch autoscroll
font size
0
reset
transpose
0
reset
display chords
guitar tuner
edit
Autoscroll
slow
fast
+/-
esc
set tempo
stop
Strumming
There is no strumming pattern for this song yet. and get +5 IQ
[Intro]

e|--------------|
b|1h3-1---------|
g|-----0h2------|
D|--------0h2---|
A|-------------3|
E|--------------|

[Verse 1]
Am                                 E
You tell lies when the truth will do
Am
You are the social chameleon
                                 E
What on earth we gonna do with you?
          Am
Slip your neck into a rope,
          C
Show me a smile
            D
You'd run a mile
             Am
Then you are free,

So where's the goal?
             Am
Where's the style?
             Am
You want the dough
C            D
Got dead sea scrolls
                            Am
For you and your women too

[Pre chorus]
e|3-0--------------3-3-1-0|
b|-------3s1-1s3----------|
g|------------------------|
D|------------------------|
A|------------------------|
E|------------------------|


[Chorus]


e|0-0-0-1-0------------3-3-1-0|0-0-0-1-0-----------3-3-1-0|
b|----------3-1-1s3-----------|----------3-1-1s3----------|
g|----------------------------|---------------------------|
D|----------------------------|---------------------------|
A|----------------------------|---------------------------|
E|----------------------------|---------------------------|

Am                       G
She's got corpses in her mouth
Am                             G
Still she's holding hands with you
Am                          G
It's cut like crystal chandeliers
Am                          G
I'll shine like diamonds in her ears

[Interlude]
e|-------------------------|
b|-------------------------|
g|-------------------------|
D|-------------------------|
A|-------------------------|
E|8---8-10-11-8---8-10-11-7|

[Verse 2]
Am                             E
She smokes crack, it’s off the beaten track
           Am
You're the social chameleon
                                           E
yeah, you change to suit the people around you
                         Am
It’s like the waves that hit the shore

You cannot stand the force of law
            C                                       D               Am
Look man, I know it from your nature, hit the deck, as the creator
C            D
Got dead sea scrolls for you and your woman too

[Chorus]
Am                       G
She's got corpses in her mouth
Am                             G
Still she's holding hands with you
Am                          G
It's cut like crystal chandeliers
Am                          G
I'll shine like diamonds in her ears

            
            
Suggest correction
Creating personal tab
Creating personal tab
You can edit any tab online and save it as your Personal.

You can edit, replace or remove any tab part or add personal notes – all changes will be seen only by you.

Personal tabs can be accessed anytime from any device, even offline.
Learn more »
Give kudos to tab author, rate the tab!
1 2 3 4 5
comments
print report bad tab
guest
You may want to rate the tab now too:
select rating
Wanna post a correction for this tab? Suggest correction