Oops, an error
Loading. Please wait.

Campfire Light chords

52 views 3 this week
no commentswrite comment
1 2 3 4 5
3 more votes to show rating
add to favorites
×
Save as Personal and add changes to this tab that will be seen only by you. Learn more ›
×
You can save this tab as Personal to edit and correct it or add notes. All changes will be seen only by you. Learn more »
launch autoscroll
font size
0
reset
transpose
0
reset
simplify chords
display chords
guitar tuner
edit
Autoscroll
slow
fast
+/-
esc
set tempo
stop
Author
Difficulty
Strumming
There is no strumming pattern for this song yet. and get +5 IQ
[Intro]
     C
e|--3---3---------0-0----|
B|--1---1---1-h-3---1----|
G|-----------------------|
D|----2---2-----------2--|
A|--3---3-----------3----|
E|-----------------------|

     C
e|--3---3---------0---------0---|
B|--1---1---1-h-3-----1-h-3-----|
G|------------------------------|
D|----2---2---------2----------2|
A|--3---3-------------3---------|
E|------------------------------|

    Bb        F             C
e|---------------------------------0-----------0--|
B|------3---------------1---1------1----1------1--|
G|-------3--------0-h-2-----0-----------0---------|
D|----3---3-----3-------------2------2-----2------|
A|--1-----------------------3---3-------3----3----|
E|------------1-----------------------------------|

    Bb        F             C
e|---------------------------------0---------0----|
B|------3---------------1---1------1----1----1----|
G|-------3--------0-h-2-----0-----------0---------|
D|----3---3-----3-------------2------2------------|
A|--1-----------------------3---3------------3----|
E|------------1-----------------------------------|

[Chorus]
C
I like to sing I love to dance
C
I would play the fool if I got the chance
Bb         F             C
All around the campfire light
Bb         F             C
All around the campfire light

[Verse 1]
C
Just this out of tune old guitar
C
I'm not trying to be no star
Bb                     F                  C
there's enough of them in the summer's night
Bb                     F                  C
there's enough of them in the summer's night

[Verse 2]
C
You can look to Venus you can look to Mars
C
I set my sights for the Northern Star
Bb                     F                  C
In the deep dark blue come the Northern lights
Bb                     F                  C
in the deep dark blue come the Northern lights

[Bridge]
G
I like to sing when I paddle canoe
Em
feeling not thinking every stoke runs true
F                                   C  Csus4  C   Csus2
got to get through to the other side

[Verse 3]
C
Out in the night the waves hit the shore
C
you can hear them pounding you can hear them roar
Bb                       F            C
you can roll and rock me in my dreams
Bb                       F            C
you can roll and rock me in my dreams

[Chorus]
C
I like to sing I love to dance
C
I would play the fool if I got the chance
Bb         F             C
All around the campfire light
Bb         F             C
All around the campfire light

            
            
Suggest correction
Creating personal tab
Creating personal tab
You can edit any tab online and save it as your Personal.

You can edit, replace or remove any tab part or add personal notes – all changes will be seen only by you.

Personal tabs can be accessed anytime from any device, even offline.
Learn more »
Give kudos to tab author, rate the tab!
1 2 3 4 5
comments
print report bad tab
guest
You may want to rate the tab now too:
select rating
Wanna post a correction for this tab? Suggest correction