Oops, an error
Loading. Please wait.

Akoy Sa Iyo Ikay Akin solo tab

version 1
version 1

Solo

Whole song

by Iaxe
12,178 views 39 this week
no commentswrite comment
1 2 3 4 5
1 last vote to show rating
add to favorites
×
Save as Personal and add changes to this tab that will be seen only by you. Learn more ›
×
You can save this tab as Personal to edit and correct it or add notes. All changes will be seen only by you. Learn more »
launch autoscroll
font size
0
reset
how to read this tab
guitar tuner
edit
Autoscroll
slow
fast
+/-
esc
set tempo
stop
Author
Title:     Ako'y Sa Iyo, Ika'y Sa Akin (Solo)
Artist:    Iaxe
Tabbed By: Gilbert C. Bumanlag
Tuning:    Standard

Solo part lang ito. Tama na kasi yung mga tab nito dito. Medyo may problema lang yung 
solo part na tab kaya ginawan ko.And also may kulang na chords ung mga naunang tab. Sa 
first stanza ng verse pagkatapos ng E dapat may G. Ganito dapat:

Na ako'y mahal mo rin...
e-----------0------3--0----------|
B-----------0------0--0----------|
G-----------1------0--1----------|
D-----------2------0--2----------|
A-----------2------2--2----------|
E-----------0------3--0----------|

Gawin nyo din 'to sa first stanza ng 2nd verse.

Sa refrain naman dapat may Dm/G pagkatapos ng Dm

...sa tuwing ako'y lumalapit...

e--------1------------1---|
B--------3------------3---|
G--------2------------2---|
D--------0------------0---|
A---------------------x---|
E---------------------3---|

Dagdag nyo lang lagi yung Dm/G pagkatapos ng Dm sa refrain at sa last part ng chorus 
ulit ng Dm at bago ulitin ang intro.


Eto na ung solo part. Sigurado ko dito.

e-----------------------------------|
B---------------2-------------------|
G---------1-2-4----4-2-1h2p1--------|
D-----2-4--------------------4-2h4--|
A-0-4-------------------------------|
E-----------------------------------|

e----------------------------------------------|
B------------------------------5---------------|
G---------------------2h4--4/6---4-2/1-2p1-----|
D-2p0-------------2h4----------------------2~--|
A-----4p0-2p0-2h4------------------------------|
E----------------------------------------------|

e--5/7-5---------------|
B--5/7-5----7-5-3--2~--|
G-----------6-4-2--2~--|
D----------------------|
A---------5------------|
E----------------------|

e-12-10-9-10-9-------------------------------------------|
B-x------------12-10-9--------------14-12-10-------------|
G-x--------------------11hb-9-11fb----------13/11-11-9~--|
D-x------------------------------------------------------|
A-x------------------------------------------------------|
E--------------------------------------------------------|

~ - vibrato
h - hammer-on
p - pull-of
hb - half bend
fb - full bend

-End-

Hi nathan, ricky, ruben, joy, nemo.

            
            
Suggest correction
Creating personal tab
Creating personal tab
You can edit any tab online and save it as your Personal.

You can edit, replace or remove any tab part or add personal notes – all changes will be seen only by you.

Personal tabs can be accessed anytime from any device, even offline.
Learn more »
Give kudos to tab author, rate the tab!
1 2 3 4 5
comments
print report bad tab
guest
You may want to rate the tab now too:
select rating
Wanna post a correction for this tab? Suggest correction