Oops, an error
Loading. Please wait.

Today Was A Good Day intro tab

version 1
version 1

Intro

Interactive

2,985 views 30 this week
1 commentread comment
1 2 3 4 5
x 8
add to favorites
×
Save as Personal and add changes to this tab that will be seen only by you. Learn more ›
×
You can save this tab as Personal to edit and correct it or add notes. All changes will be seen only by you. Learn more »
launch autoscroll
font size
0
reset
how to read this tab
guitar tuner
backing track
0:00
0:00
edit
Autoscroll
slow
fast
+/-
esc
set tempo
stop
Author
Difficulty
Unregistered
-------------------------------------------------------------------------------
                             Today Was A Good Day - Ice Cube
-------------------------------------------------------------------------------
Tabbed by: alexjolivas
E-mail: Fendurp@gmail.com

Tuning: Standard

e|-7~----9--7---------------------5--6---7~-----------------------------------------|
B|-7~-----------------------------5--6---7~-----------------------------------------|
G|-7~-----------------------------5--6---7~-----------------------------------------|
D|-7~----------9-7h9p7-5h7p5-4----7--8---7~-----------------------------------------|
A|-9~-----------------------------5--6---9~-----------------------------------------|
E|-7~-----------------------------5--6---7~-----------------------------------------|


            
            
Suggest correction
Creating personal tab
Creating personal tab
You can edit any tab online and save it as your Personal.

You can edit, replace or remove any tab part or add personal notes – all changes will be seen only by you.

Personal tabs can be accessed anytime from any device, even offline.
Learn more »
comments
print report bad tab
1 comment total.
0 reply
Omeyr 15 Oct 25, 2015 10:00 AM

All the notes seem a quite off, the rythme is not shown, and even the chords are not so accurate

guest
Wanna post a correction for this tab? Suggest correction