Oops, an error
Loading. Please wait.

Jonathan Acoustic tab

3,427 views 12 this week
1 commentread comment
1 2 3 4 5
2 more votes to show rating
add to favorites
×
Save as Personal and add changes to this tab that will be seen only by you. Learn more ›
×
You can save this tab as Personal to edit and correct it or add notes. All changes will be seen only by you. Learn more »
launch autoscroll
font size
0
reset
how to read this tab
guitar tuner
edit
Autoscroll
slow
fast
+/-
esc
set tempo
stop
-------------------------------------------------------------------------------
                             Jonathan Acoustic - Ice Nine Kills
-------------------------------------------------------------------------------
Just gonna start out by saying this probably isn't 100% accurate. These chords sound good when
played along with the song but they might be wrong and I hope they give someone a good start at
tabbing it out accurately.
I don't know the bridge but I know it has these exact same chords in it, just couldn't figure out
the progression. Feel free to comment any corrections.

Tuning: Half-Step Down

Intro/Verses (I think this is the strumming pattern)
e|-0-0-0-0-0--0-0-0-0-0--0-0-0-0-0--0-0-0-0-0--0-0-0-0-0--0-0-0-0-0--0-0-0-0-0--0-0-0-0-0-------------|
B|-0-0-0-0-0--0-0-0-0-0--0-0-0-0-0--0-0-0-0-0--0-0-0-0-0--0-0-0-0-0--0-0-0-0-0--0-0-0-0-0-------------|
G|-x-x-x-x-x--x-x-x-x-x--x-x-x-x-x--x-x-x-x-x--1-1-1-1-1--1-1-1-1-1--1-1-1-1-1--x-x-x-x-x-------------|
D|-6-6-6-6-6--6-6-6-6-6--6-6-6-6-6--4-4-4-4-4--2-2-2-2-2--2-2-2-2-2--2-2-2-2-2--4-4-4-4-4-------------|
A|-6-6-6-6-6--6-6-6-6-6--6-6-6-6-6--4-4-4-4-4--2-2-2-2-2--2-2-2-2-2--2-2-2-2-2--4-4-4-4-4-------------|
E|-4-4-4-4-4--4-4-4-4-4--4-4-4-4-4--2-2-2-2-2--0-0-0-0-0--0-0-0-0-0--0-0-0-0-0--2-2-2-2-2-------------|

Pre-Chorus   (I think this is the strumming pattern)
e|-0--0-0--0--0-0--0--0-0--0--0-0--0--0-0--0--0-0--0--0-0--0--0-0------------|
B|-0--0-0--0--0-0--0--0-0--0--0-0--0--0-0--0--0-0--0--0-0--0--0-0------------|
G|-x--x-x--x--x-x--x--x-x--x--x-x--1--1-1--1--1-1--1--1-1--1--1-1------------|
D|-6--6-6--6--6-6--9--9-9--9--9-9--2--2-2--2--2-2--2--2-2--2--2-2------------|
A|-6--6-6--6--6-6--9--9-9--9--9-9--2--2-2--2--2-2--2--2-2--2--2-2------------|
E|-4--4-4--4--4-4--7--7-7--7--7-7--0--0-0--0--0-0--0--0-0--0--0-0------------|

Chorus       (I think this is the strumming pattern)
e|-0--0-0-0-0-0--0-0-0-0-0--0-0-0-0-0--0-0-0-0-0--0-0-0-0-0--0-0-0-0-0--0-0-0-0-0--0-0-0-0--|
B|-0--0-0-0-0-0--0-0-0-0-0--0-0-0-0-0--0-0-0-0-0--0-0-0-0-0--0-0-0-0-0--0-0-0-0-0--0-0-0-0--|
G|-x--x-x-x-x-x--x-x-x-x-x--x-x-x-x-x--x-x-x-x-1--1-1-1-1-1--1-1-1-1-1--1-1-1-1-1--1-1-1-1--|
D|-6--6-6-6-6-6--6-6-6-6-4--4-4-4-4-4--4-4-4-4-2--2-2-2-2-2--2-2-2-2-2--2-2-2-2-2--2-2-2-2--|
A|-6--6-6-6-6-6--6-6-6-6-4--4-4-4-4-4--4-4-4-4-2--2-2-2-2-2--2-2-2-2-2--2-2-2-2-2--2-2-2-2--|
E|-4--4-4-4-4-4--4-4-4-4-2--2-2-2-2-2--2-2-2-2-0--0-0-0-0-0--0-0-0-0-0--0-0-0-0-0--0-0-0-0--|


************************************

| /   slide up
| \   slide down
| h   hammer-on
| p   pull-off
| ~   vibrato
| +   harmonic
| x   Mute note
| b   Bend
| pb  Pre-bend
| br  Bend release
| pbr Pre-bend release
| brb Bend release bend

************************************

            
            
Suggest correction
Creating personal tab
Creating personal tab
You can edit any tab online and save it as your Personal.

You can edit, replace or remove any tab part or add personal notes – all changes will be seen only by you.

Personal tabs can be accessed anytime from any device, even offline.
Learn more »
Give kudos to tab author, rate the tab!
1 2 3 4 5
comments
print report bad tab
1 comment total.
+1 reply
chancestearns 42 Oct 13, 2014 06:46 PM

Nice tab man! I tabbed mine out almost perfectly with a tad bit of help from this! Check it out in the pending tabs page and vote it up! :)

guest
You may want to rate the tab now too:
select rating
Wanna post a correction for this tab? Suggest correction