Oops, an error
Loading. Please wait.

Cast In Stone bass

version 1
version 1

Whole song

Interactive

174 views 1 this week
no commentswrite comment
1 2 3 4 5
3 more votes to show rating
add to favorites
×
Save as Personal and add changes to this tab that will be seen only by you. Learn more ›
×
You can save this tab as Personal to edit and correct it or add notes. All changes will be seen only by you. Learn more »
launch autoscroll
font size
0
reset
guitar tuner
edit
Autoscroll
slow
fast
+/-
esc
set tempo
stop
   Cast in Stone                                   

Transcribed by an unregistered user
                                                                      Iced Earth
Bass



      W                   W                   W                 
F#||-------------------|-------------------|-------------------|
C#||-------------------|-------------------|-------------------|
G#||-------------------|-------------------|-------------------|
D#||--3----------------|--L----------------|--2----------------|
A#||-------------------|-------------------|-------------------|


  W                   W                   W                   W                 
-------------------|-------------------|-------------------|-------------------|
-------------------|-------------------|-------------------|-------------------|
-------------------|-------------------|-------------------|-------------------|
--L----------------|--5----------------|--L----------------|--0----------------|
-------------------|-------------------|-------------------|-------------------|


  W                     Q    E  E  Q    E  E     Q    E  E  Q    E  E   
-------------------||-------------------------|------------------------|
-------------------||*------------------------|------------------------|
-------------------||-------------------------|------------------------|
--L----------------||*--3----3--3--3----3--3--|--3----3--3--3----3--3--|
-------------------||-------------------------|------------------------|


  Q    E  E  Q    E  E     Q    E  E  Q    E  E     Q    E  E  Q    E  E   
------------------------|------------------------|------------------------|
------------------------|------------------------|------------------------|
------------------------|------------------------|------------------------|
--2----2--2--2----2--2--|--2----2--2--2----2--2--|--5----5--5--5----5--5--|
------------------------|------------------------|------------------------|


  Q    E  E  Q    E  E     Q    E  E  Q    E  E     Q    E  E  Q    Q       
------------------------|------------------------|------------------------||
------------------------|------------------------|-----------------------*||
------------------------|------------------------|------------------------||
--5----5--5--5----5--5--|--0----0--0--0----0--0--|--0----0--0--0----0----*||
------------------------|------------------------|------------------------||


  W                   W                   Q    E  S S E  S S E  S S  
-------------------|-------------------|----------------------------|
-------------------|-------------------|----------------------------|
-------------------|-------------------|----------------------------|
--3----------------|--L----------------|--3----3--3-3-3--3-3-3--3-3-|
-------------------|-------------------|----------------------------|


  E  S S E  S S E  S S E  S S    Q    E  S S E  S S E  S S  
------------------------------|----------------------------|
------------------------------|----------------------------|
------------------------------|----------------------------|
--3--3-3-3--3-3-3--3-3-3--3-3-|--2----2--2-2-2--2-2-2--2-2-|
------------------------------|----------------------------|


  E  S S E  S S E  S S E  S S    Q    E  S S E  S S E  S S  
------------------------------|----------------------------|
------------------------------|----------------------------|
------------------------------|----------------------------|
--2--2-2-2--2-2-2--2-2-2--2-2-|--5----5--5-5-5--5-5-5--5-5-|
------------------------------|----------------------------|


  E  S S E  S S E  S S E  S S    Q    E  S S E  E  E  S S  
------------------------------|---------------------------|
------------------------------|---------------------------|
------------------------------|---------------------------|
--5--5-5-5--5-5-5--5-5-5--5-5-|--0----0--0-0-0--0--0--0-0-|
------------------------------|---------------------------|


  E  E  E  S S E  S S E  S S      Q    E  S S E  S S E  S S  
-----------------------------||-----------------------------|
-----------------------------||*----------------------------|
-----------------------------||-----------------------------|
--0--0--0--0-0-0--0-0-0--0-0-||*--3----3--3-3-3--3-3-3--3-3-|
-----------------------------||-----------------------------|


  E  S S E  S S E  S S E  S S    Q    E  S S E  S S E  S S  
------------------------------|----------------------------|
------------------------------|----------------------------|
------------------------------|----------------------------|
--3--3-3-3--3-3-3--3-3-3--3-3-|--2----2--2-2-2--2-2-2--2-2-|
------------------------------|----------------------------|


  E  S S E  S S E  S S E  S S    Q    E  S S E  S S E  S S  
------------------------------|----------------------------|
------------------------------|----------------------------|
------------------------------|----------------------------|
--2--2-2-2--2-2-2--2-2-2--2-2-|--5----5--5-5-5--5-5-5--5-5-|
------------------------------|----------------------------|


  E  S S E  S S E  S S E  S S    Q    E  S S E  E  E  S S  
------------------------------|---------------------------|
------------------------------|---------------------------|
------------------------------|---------------------------|
--5--5-5-5--5-5-5--5-5-5--5-5-|--0----0--0-0-0--0--0--0-0-|
------------------------------|---------------------------|


  E  E  E  S S E  S S E  S S      E  S S E  S S E  S S E  S S  
------------------------------||------------------------------|
-----------------------------*||------------------------------|
------------------------------||------------------------------|
--0--0--0--0-0-0--0-0-0--0-0-*||--3--3-3-3--3-3-3--3-3-3--3-3-|
------------------------------||------------------------------|


  E  S S E  S S E  S S E  S S    E  S S E  S S E  S S E  S S  
------------------------------|------------------------------|
------------------------------|------------------------------|
------------------------------|------------------------------|
--3--3-3-3--3-3-3--3-3-3--3-3-|--2--2-2-2--2-2-2--2-2-2--2-2-|
------------------------------|------------------------------|


  E  S S E  S S E  S S E  S S    E  S S E  S S E  S S E  S S  
------------------------------|------------------------------|
------------------------------|------------------------------|
------------------------------|------------------------------|
--2--2-2-2--2-2-2--2-2-2--2-2-|--5--5-5-5--5-5-5--5-5-5--5-5-|
------------------------------|------------------------------|


  E  S S E  S S E  S S E  S S    E  S S E  S S E  S S E  S S  
------------------------------|------------------------------|
------------------------------|------------------------------|
------------------------------|------------------------------|
--5--5-5-5--5-5-5--5-5-5--5-5-|--0--0-0-0--0-0-0--0-0-0--0-0-|
------------------------------|------------------------------|


  E  S S E  S S E  S S E  S S      Q    E  S S E  S S E  S S  
------------------------------||-----------------------------|
------------------------------||*----------------------------|
------------------------------||-----------------------------|
--0--0-0-0--0-0-0--0-0-0--0-0-||*--3----3--3-3-3--3-3-3--3-3-|
------------------------------||-----------------------------|


  E  S S E  S S E  S S E  S S    Q    E  S S E  S S E  S S  
------------------------------|----------------------------|
------------------------------|----------------------------|
------------------------------|----------------------------|
--3--3-3-3--3-3-3--3-3-3--3-3-|--2----2--2-2-2--2-2-2--2-2-|
------------------------------|----------------------------|


  E  S S E  S S E  S S E  S S    Q    E  S S E  S S E  S S  
------------------------------|----------------------------|
------------------------------|----------------------------|
------------------------------|----------------------------|
--2--2-2-2--2-2-2--2-2-2--2-2-|--5----5--5-5-5--5-5-5--5-5-|
------------------------------|----------------------------|


  E  S S E  S S E  S S E  S S    Q    E  S S E  E  E  S S  
------------------------------|---------------------------|
------------------------------|---------------------------|
------------------------------|---------------------------|
--5--5-5-5--5-5-5--5-5-5--5-5-|--0----0--0-0-0--0--0--0-0-|
------------------------------|---------------------------|


  E  E  E  S S E  S S E  S S      E  S S E  S S E  S S E  S S  
------------------------------||------------------------------|
-----------------------------*||------------------------------|
------------------------------||------------------------------|
--0--0--0--0-0-0--0-0-0--0-0-*||--3--3-3-3--3-3-3--3-3-3--3-3-|
------------------------------||------------------------------|


  E  S S E  S S E  S S E  S S    E  S S E  S S E  S S E  S S  
------------------------------|------------------------------|
------------------------------|------------------------------|
------------------------------|------------------------------|
--3--3-3-3--3-3-3--3-3-3--3-3-|--2--2-2-2--2-2-2--2-2-2--2-2-|
------------------------------|------------------------------|


  E  S S E  S S E  S S E  S S    E  S S E  S S E  S S E  S S  
------------------------------|------------------------------|
------------------------------|------------------------------|
------------------------------|------------------------------|
--2--2-2-2--2-2-2--2-2-2--2-2-|--5--5-5-5--5-5-5--5-5-5--5-5-|
------------------------------|------------------------------|


  E  S S E  S S E  S S E  S S    E  S S E  S S E  S S E  S S  
------------------------------|------------------------------|
------------------------------|------------------------------|
------------------------------|------------------------------|
--5--5-5-5--5-5-5--5-5-5--5-5-|--0--0-0-0--0-0-0--0-0-0--0-0-|
------------------------------|------------------------------|


  E  S S E  S S E  S S E  S S    W                   W                 
------------------------------|-------------------|-------------------|
------------------------------|-------------------|-------------------|
------------------------------|-------------------|-------------------|
--0--0-0-0--0-0-0--0-0-0--0-0-|--0----------------|--L----------------|
------------------------------|-------------------|-------------------|


  W                   W                   W                   W                 
-------------------|--5----------------|--9----------------|--4----------------|
-------------------|-------------------|-------------------|-------------------|
-------------------|--3----------------|--7----------------|--2----------------|
--L----------------|-------------------|-------------------|-------------------|
-------------------|-------------------|-------------------|-------------------|


  W                   W                   W                   W                 
--7----------------|--9----------------|-------------------|--7----------------|
-------------------|-------------------|--9----------------|-------------------|
--5----------------|--7----------------|-------------------|--5----------------|
-------------------|-------------------|--7----------------|-------------------|
-------------------|-------------------|-------------------|-------------------|


  W                   W                   W                   W                 
-------------------|--9----------------|-------------------|--7----------------|
--7----------------|-------------------|--9----------------|-------------------|
-------------------|--7----------------|-------------------|--5----------------|
--5----------------|-------------------|--7----------------|-------------------|
-------------------|-------------------|-------------------|-------------------|


  W                   W                   W                   W                 
-------------------|--9----------------|-------------------|--7----------------|
--7----------------|-------------------|--9----------------|-------------------|
-------------------|--7----------------|-------------------|--5----------------|
--5----------------|-------------------|--7----------------|-------------------|
-------------------|-------------------|-------------------|-------------------|


  W                   W                   W                   W                 
-------------------|--9----------------|-------------------|--7----------------|
--7----------------|-------------------|--9----------------|-------------------|
-------------------|--7----------------|-------------------|--5----------------|
--5----------------|-------------------|--7----------------|-------------------|
-------------------|-------------------|-------------------|-------------------|


  W                   W                   W                   W                 
-------------------|--9----------------|-------------------|--7----------------|
--7----------------|-------------------|--9----------------|-------------------|
-------------------|--7----------------|-------------------|--5----------------|
--5----------------|-------------------|--7----------------|-------------------|
-------------------|-------------------|-------------------|-------------------|


  W                   W                   W                   W                 
-------------------|--9----------------|-------------------|--7----------------|
--7----------------|-------------------|--9----------------|-------------------|
-------------------|--7----------------|-------------------|--5----------------|
--5----------------|-------------------|--7----------------|-------------------|
-------------------|-------------------|-------------------|-------------------|


  W                   E  S S E  S S S S S S E  S S  
-------------------|-------------------------------|
--7----------------|-------------------------------|
-------------------|--7--7-7-7--7-7-7-7-7-7-7--7-7-|
--5----------------|-------------------------------|
-------------------|-------------------------------|


  E  S S E  S S S S S S E  S S    E  S S E  S S S S S S E  S S  
-------------------------------|-------------------------------|
-------------------------------|-------------------------------|
-------------------------------|--5--5-5-5--5-5-5-5-5-5-5--5-5-|
--7--7-7-7--7-7-7-7-7-7-7--7-7-|-------------------------------|
-------------------------------|-------------------------------|


  E  S S E  S S S S S S S S S S    E  S S E  S S S S S S E  S S  
--------------------------------|-------------------------------|
--------------------------------|-------------------------------|
--------------------------------|--7--7-7-7--7-7-7-7-7-7-7--7-7-|
--5--5-5-5--5-5-5-5-5-5-5-5-5-5-|-------------------------------|
--------------------------------|-------------------------------|


  E  S S E  S S S S S S E  S S    E  S S E  S S S S S S E  S S  
-------------------------------|-------------------------------|
-------------------------------|-------------------------------|
-------------------------------|--5--5-5-5--5-5-5-5-5-5-5--5-5-|
--7--7-7-7--7-7-7-7-7-7-7--7-7-|-------------------------------|
-------------------------------|-------------------------------|


  E  S S E  S S S S S S S S S S    H.           E  E     W                 
--------------------------------|---------------------|-------------------|
--------------------------------|---------------------|-------------------|
--------------------------------|--0------------L--0--|-------------------|
--5--5-5-5--5-5-5-5-5-5-5-5-5-5-|---------------------|--0----------------|
--------------------------------|---------------------|-------------------|


  H.           E  E      E   E   E   Q     E   E   E   
---------------------|--------------------------------|
---------------------|--------------------------------|
--0------------L--0--|--------------12----------------|
---------------------|--12--14--15--------15--14--12--|
---------------------|--------------------------------|


   Q     E   Q     Q     E      Q     E   Q     Q     E   
----------------------------|----------------------------|
------------14--------------|----------------------------|
--12----15--------15----12--|------------14--------------|
----------------------------|--12----15--------15----12--|
----------------------------|----------------------------|


   Q     E   Q     Q     E      H.            E   E   
----------------------------|------------------------|
------------14----12--------|------------------------|
--12----15--------------15--|--14-------------L--14--|
----------------------------|------------------------|
----------------------------|------------------------|


   Q     E   Q     Q     E      Q     E   Q     Q     E   
----------------------------|----------------------------|
------------14--------------|----------------------------|
--12----15--------15----12--|------------14--------------|
----------------------------|--12----15--------15----12--|
----------------------------|----------------------------|


   Q     E   Q     Q     E      H.            E   E   
----------------------------|------------------------|
------------14----12--------|------------------------|
--12----15--------------15--|--14-------------L--14--|
----------------------------|------------------------|
----------------------------|------------------------|


   Q     E   Q     E   E   E      Q     E   Q     E   E   E   
------------------------------|------------------------------|
----------------------12------|--------12--------12----------|
--12----15--14----15------15--|------------15--------15--14--|
------------------------------|--12--------------------------|
------------------------------|------------------------------|


   Q     E   Q     Q     E      H.           E   E   
----------------------------|-----------------------|
------------14----12--------|-----------------------|
--12----15--------------15--|-----------------------|
----------------------------|--12------------L--12--|
----------------------------|-----------------------|


   Q     E   Q     Q     E      E   E   H        E   E   
----------------------------|---------------------------|
------------14----12--------|---------------------------|
--12----15--------------15--|--14--15--14--------L--14--|
----------------------------|---------------------------|
----------------------------|---------------------------|


   Q     E   Q     Q     E      H.            Q         E  E  Q    E  E  E  E   
----------------------------|----------------------||--------------------------|
------------14----12--------|----------------------||*-------------------------|
--12----15--------------15--|----------------------||---0--0--0-------0-----0--|
----------------------------|--12------------12----||*-------------------------|
----------------------------|----------------------||--------------------------|


  E  E  H.              E  E  Q    E  E  E  E     E  E  E  E  H           
---------------------|-------------------------|------------------------||
---------------------|-------------------------|-----------------------*||
--0--0---------------|-------------------------|------------------------||
---------------------|--0--0--0-------0-----0--|--0--0--0--------------*||
---------------------|-------------------------|------------------------||


  W                   W                   Q    H.            
-------------------|-------------------|--------------------|
-------------------|-------------------|--------------------|
--0----------------|--L----------------|--0-----------------|
-------------------|-------------------|--------------------|
-------------------|-------------------|--------------------|


  W                   Q    H.              W                 
-------------------|--------------------|-------------------|
-------------------|--------------------|-------------------|
-------------------|--------------------|-------------------|
-------------------|--0-----------------|-------------------|
-------------------|--------------------|-------------------|


  W                   W                   Q    H.            
-------------------|-------------------|--------------------|
-------------------|-------------------|--------------------|
--0----------------|--L----------------|--------------------|
-------------------|-------------------|--0-----------------|
-------------------|-------------------|--------------------|


  W                   Q    E  S S E  S S E  E     Q    E  S S E  S S Q     
-------------------|---------------------------|--------------------------|
-------------------|---------------------------|--------------------------|
-------------------|--0----0--0-0-0--0-0-0--0--|--L----0--0-0-0--0-0-0----|
-------------------|---------------------------|--------------------------|
-------------------|---------------------------|--------------------------|


  Q    E  S S E  S S E  E     Q    E  S S E  S S Q     
---------------------------|--------------------------|
---------------------------|--------------------------|
---------------------------|--------------------------|
--0----0--0-0-0--0-0-0--0--|--L----0--0-0-0--0-0-0----|
---------------------------|--------------------------|


  Q    E  S S E  S S E  E     Q    E  S S E  S S Q     
---------------------------|--------------------------|
---------------------------|--------------------------|
--0----0--0-0-0--0-0-0--0--|--L----0--0-0-0--0-0-0----|
---------------------------|--------------------------|
---------------------------|--------------------------|


  Q    E  S S E  S S E  E     Q    E  S S E  S S Q     
---------------------------|--------------------------|
---------------------------|--------------------------|
---------------------------|--------------------------|
--0----0--0-0-0--0-0-0--0--|--L----0--0-0-0--0-0-0----|
---------------------------|--------------------------|


  Q    E  S S E  S S E  E     Q    E  S S E  S S Q     
---------------------------|--------------------------|
---------------------------|--------------------------|
--0----0--0-0-0--0-0-0--0--|--L----0--0-0-0--0-0-0----|
---------------------------|--------------------------|
---------------------------|--------------------------|


  Q    E  S S E  S S E  E     Q    E  S S E  S S Q     
---------------------------|--------------------------|
---------------------------|--------------------------|
---------------------------|--------------------------|
--0----0--0-0-0--0-0-0--0--|--L----0--0-0-0--0-0-0----|
---------------------------|--------------------------|


  Q    E  S S E  S S E  E     Q    E  S S E  S S Q     
---------------------------|--------------------------|
---------------------------|--------------------------|
--0----0--0-0-0--0-0-0--0--|--L----0--0-0-0--0-0-0----|
---------------------------|--------------------------|
---------------------------|--------------------------|


  Q    E  S S E  S S E  E     Q    E  S S E  S S Q     
---------------------------|--------------------------|
---------------------------|--------------------------|
---------------------------|--------------------------|
--0----0--0-0-0--0-0-0--0--|--L----0--0-0-0--0-0-0----|
---------------------------|--------------------------|


  Q    E  S S E  S S E  E     E  E  E  S S E  S S E  S S  
---------------------------|-----------------------------|
---------------------------|-----------------------------|
--5----5--5-5-5--5-5-5--5--|--L--5--5--5-5-5--5-5-5--5-5-|
---------------------------|-----------------------------|
---------------------------|-----------------------------|


  Q    E  S S E  S S E  E     E  E  E  S S E  S S E  S S  
---------------------------|-----------------------------|
---------------------------|-----------------------------|
--1----1--1-1-1--1-1-1--1--|--L--1--1--1-1-1--1-1-1--1-1-|
---------------------------|-----------------------------|
---------------------------|-----------------------------|


  Q    E  S S E  S S E  E     E  E  E  S S E  S S E  S S  
---------------------------|-----------------------------|
---------------------------|-----------------------------|
--3----3--3-3-3--3-3-3--3--|--L--3--3--3-3-3--3-3-3--3-3-|
---------------------------|-----------------------------|
---------------------------|-----------------------------|


  Q    E  S S E  S S E  E     E  E  E  E  Q    Q     
---------------------------|------------------------|
---------------------------|------------------------|
--0----0--0-0-0--0-0-0--1--|--L--3--1--0--5----3----|
---------------------------|------------------------|
---------------------------|------------------------|


  Q    E  S S E  S S E  E     E  E  E  S S E  S S E  S S  
---------------------------|-----------------------------|
---------------------------|-----------------------------|
--5----5--5-5-5--5-5-5--5--|--L--5--5--5-5-5--5-5-5--5-5-|
---------------------------|-----------------------------|
---------------------------|-----------------------------|


  Q    E  S S E  S S E  E     E  E  E  S S E  S S E  S S  
---------------------------|-----------------------------|
---------------------------|-----------------------------|
--1----1--1-1-1--1-1-1--1--|--L--1--1--1-1-1--1-1-1--1-1-|
---------------------------|-----------------------------|
---------------------------|-----------------------------|


  Q    E  S S E  S S E  E     E  E  E  S S E  S S E  S S  
---------------------------|-----------------------------|
---------------------------|-----------------------------|
--3----3--3-3-3--3-3-3--3--|--L--3--3--3-3-3--3-3-3--3-3-|
---------------------------|-----------------------------|
---------------------------|-----------------------------|


  Q    E  S S E  S S E  E     E  E  E  E  Q    Q     
---------------------------|------------------------|
---------------------------|------------------------|
--0----0--0-0-0--0-0-0--1--|--L--3--1--0--5----3----|
---------------------------|------------------------|
---------------------------|------------------------|


  E  S S E  S S E  S S E  S S    E  S S E  S S E  S S E  S S  
------------------------------|------------------------------|
------------------------------|------------------------------|
------------------------------|------------------------------|
--3--3-3-3--3-3-3--3-3-3--3-3-|--3--3-3-3--3-3-3--3-3-3--3-3-|
------------------------------|------------------------------|


  E  S S E  S S E  S S E  S S    E  S S E  S S E  S S E  S S  
------------------------------|------------------------------|
------------------------------|------------------------------|
------------------------------|------------------------------|
--2--2-2-2--2-2-2--2-2-2--2-2-|--2--2-2-2--2-2-2--2-2-2--2-2-|
------------------------------|------------------------------|


  E  S S E  S S E  S S E  S S    E  S S E  S S E  S S E  S S  
------------------------------|------------------------------|
------------------------------|------------------------------|
------------------------------|------------------------------|
--5--5-5-5--5-5-5--5-5-5--5-5-|--5--5-5-5--5-5-5--5-5-5--5-5-|
------------------------------|------------------------------|


                                               |----3----|     
  E  S S E  S S E  S S E  S S    E  S S E  S S Q    Q    Q     
------------------------------|-------------------------------|
------------------------------|-------------------------------|
------------------------------|----------------3----2----0----|
--0--0-0-0--0-0-0--0-0-0--0-0-|--0--0-0-0--0-0----------------|
------------------------------|-------------------------------|


    E  S S E  E  S S E  E  S S E  E  S S E   
|-------------------------------------------|
|*------------------------------------------|
|-------------------------------------------|
|*--2--2-2-2--2--2-2-2--2--2-2-2--2--2-2-2--|
|-------------------------------------------|


  E  S S E  E  S S E  Q.     Q.        E  S S E  E  S S E  E  S S E  E  S S E   
------------------------------------|------------------------------------------|
------------------------------------|------------------------------------------|
------------------------------------|------------------------------------------|
--2--2-2-2--2--2-2-2--3------0------|--0--0-0-0--0--0-0-0--0--0-0-0--0--0-0-0--|
------------------------------------|------------------------------------------|


  E  S S E  E  S S E  Q.     Q.      3x   W.                
-------------------------------------||--------------------|
------------------------------------*||*--4----------------|
-------------------------------------||--------------------|
--0--0-0-0--0--0-0-0--1-------------*||*--2----------------|
-----------------------------3-------||--------------------|


  H.           Q.     Q.        W.                
-----------------------------|-------------------|
--L------------7------4------|--2----------------|
-----------------------------|-------------------|
--L------------5------2------|--0----------------|
-----------------------------|-------------------|


  H.           Q.     Q.          W                   H        E   E  E   E   
------------------------------||-------------------|-------------------------|
--L------------7------2------*||-------------------|-------------------------|
------------------------------||-------------------|-------------------------|
--L------------5------0------*||-------------------|-------------------------|
------------------------------||--7----------------|--L--------7S--3--3S--5--|


  W                   H        E   E  E   E     W                 
-------------------|-------------------------|-------------------|
-------------------|-------------------------|-------------------|
-------------------|-------------------------|-------------------|
-------------------|-------------------------|-------------------|
--5----------------|--L--------3S--5--5S--7--|--7----------------|


  H        E   E  E   E     W                   H        E   E  E   E   
-------------------------|-------------------|-------------------------|
-------------------------|-------------------|-------------------------|
-------------------------|-------------------|-------------------------|
-------------------------|-------------------|-------------------------|
--L--------7S--3--3S--5--|--5----------------|--L--------3S--5--5S--7--|


  W                   H        E   E  E   E     W                 
-------------------|-------------------------|-------------------|
-------------------|-------------------------|-------------------|
-------------------|-------------------------|-------------------|
-------------------|-------------------------|-------------------|
--7----------------|--L--------7S--3--3S--5--|--5----------------|


  H        E   E  E   E     W                   H        E   E  E   E   
-------------------------|-------------------|-------------------------|
-------------------------|-------------------|-------------------------|
-------------------------|-------------------|-------------------------|
-------------------------|-------------------|-------------------------|
--L--------3S--5--5S--7--|--7----------------|--L--------7S--3--3S--5--|


  W                   H        Q    Q       W                 
-------------------|---------------------|-------------------|
-------------------|---------------------|-------------------|
-------------------|---------------------|-------------------|
-------------------|-----------5----0----|--2----------------|
--5----------------|--L------------------|-------------------|


  W                  
-------------------||
-------------------||
-------------------||
-------------------||
-------------------||




Duration Legend
---------------
W - whole
H - half
Q - quarter
E - 8th
S - 16th
T - 32nd
X - 64th
. - note dotted
|-n-|  - n-tuplets


Tablature Legend
----------------
L - tied note
x - dead note
g - grace note
(n) - ghost note
> - accentuded note
NH - natural harmonic
AH - artificial harmonic
TH - tapped harmonic
SH - semi harmonic
PH - pitch harmonic
h - hammer on
p - pull off
b - bend
br - bendRelease
pb - preBend
pbr - preBendRelease
brb - bendReleaseBend
\n/ - tremolo bar dip
\n - tremolo bar dive
-/n - tremolo bar Release up
/n\ - tremolo bar inverted dip
/n - tremolo bar return
-\n - tremolo bar Release down
S - shift slide
s - legato slide
/ -  slide into from below or out of upwards
\ -  slide into from above or out of downwards
~ - vibrato
W - wide vibrato
tr - trill
TP - tremolo picking
T - tapping
S - slap
P - pop
< - fade in
^ - brush up
v - brush down

            
            
Suggest correction
Creating personal tab
Creating personal tab
You can edit any tab online and save it as your Personal.

You can edit, replace or remove any tab part or add personal notes – all changes will be seen only by you.

Personal tabs can be accessed anytime from any device, even offline.
Learn more »
Give kudos to tab author, rate the tab!
1 2 3 4 5
comments
print report bad tab
guest
You may want to rate the tab now too:
select rating
Wanna post a correction for this tab? Suggest correction