Oops, an error
Loading. Please wait.

Curse The Sky bass

version 1
version 1

Whole song

Interactive

173 views 1 this week
no commentswrite comment
1 2 3 4 5
3 more votes to show rating
add to favorites
×
Save as Personal and add changes to this tab that will be seen only by you. Learn more ›
×
You can save this tab as Personal to edit and correct it or add notes. All changes will be seen only by you. Learn more »
launch autoscroll
font size
0
reset
guitar tuner
edit
Autoscroll
slow
fast
+/-
esc
set tempo
stop
 Curse the Sky                                   

Transcribed by an unregistered user 

                                                                      Iced Earth
Dave



      S S E  H.              S S E  H.              S S E  H        E  E   
F#||----------------------|----------------------|------------------------|
C#||----------------------|----------------------|------------------------|
G#||----------------------|----------------------|------------------------|
D#||--0-0-0---------------|--0-0-0---------------|--0-0-0--------------7--|


  E  Q.     Q    E  E     S S E  H.              S S E  H.            
-----------------------|----------------------|----------------------|
-----------------------|----------------------|----------------------|
-----------------------|----------------------|----------------------|
--L--8------2----2--0--|--0-0-0---------------|--0-0-0---------------|


  S S E  E  E  Q    E  E     E  Q.     E  E  E  E     S S E  H.            
---------------0----------|------------------------|----------------------|
------------4-------4-----|------------------------|----------------------|
---------5-------------5--|--L---------------------|----------------------|
--0-0-0-------------------|-----8------2--3--2--0--|--0-0-0---------------|


  S S E  H.              S S E  E  E  Q    E  E     E  Q.     E  E  E  E   
----------------------|---------------0----------|------------------------|
----------------------|------------4-------4-----|------------------------|
----------------------|---------5-------------5--|--L---------------------|
--0-0-0---------------|--0-0-0-------------------|-----8------2--3--2--0--|


  S S E  H.              S S E  H.              S S E  E  E  Q    E  E   
----------------------|----------------------|---------------0----------|
----------------------|----------------------|------------4-------4-----|
----------------------|----------------------|---------5-------------5--|
--0-0-0---------------|--0-0-0---------------|--0-0-0-------------------|


  E  Q.     E  E  E  E     S S E  E  H        E     S S E  E  H        E   
------------------------|------------------------|------------------------|
------------------------|------------------------|------------------------|
--L---------------------|---------7--7--------7--|---------7--5--------5--|
-----8------2--3--2--0--|--0-0-0-----------------|--0-0-0-----------------|


  S S E  E  E  Q    E  E     E  Q.     Q    E  E     S S E  E  H        E   
---------------0----------|-----------------------|------------------------|
--------------------4-----|-----------------------|------------------------|
---------5-------------5--|--L--3-----------------|---------7--7--------7--|
--0-0-0-----0-------------|------------2----3--2--|--0-0-0-----------------|


  S S E  E  H        E     S S E  E  E  Q    E  E     E  Q.     Q    E  E   
------------------------|---------------0----------|-----------------------|
------------------------|--------------------4-----|-----------------------|
---------7--5--------5--|---------5-------------5--|--L--3-----------------|
--0-0-0-----------------|--0-0-0-----0-------------|------------2----3--2--|


  S S E  E  H        E     S S E  E  H        E     S S E  E  E  Q    E  E   
------------------------|------------------------|---------------0----------|
------------------------|------------------------|--------------------4-----|
---------7--------------|---------7--5--------5--|---------5-------------5--|
--0-0-0-----0--------0--|--0-0-0-----------------|--0-0-0-----0-------------|


  E  Q.     Q    E  E     S S E  E  H        E     S S E  E  H        E   
-----------------------|------------------------|------------------------|
-----------------------|------------------------|------------------------|
--L--3-----------------|---------7--------------|---------7--5--------5--|
------------2----3--2--|--0-0-0-----0--------0--|--0-0-0-----------------|


  S S E  E  E  Q    E  E     E  Q.     Q    E  E     S S S S S S H        E   
---------------0----------|-----------------------|--------------------------|
--------------------4-----|-----------------------|--------------------------|
---------5-------------5--|--L--3-----------------|--------------------------|
--0-0-0-----0-------------|------------2----3--2--|--0-0-0-0---0-0--------0--|


  S S E  H        E  E  E     Q    E  E  H            Q     E  Q.     Q     
---------------------------|-------7--------------|------------------------|
---------------------------|----------7-----------|------------------------|
------5--7--------L--7-----|--5----------5--------|--10----10--9------9----|
--0-0-------------------5--|----------------------|------------------------|


  H.             Q         H.           E  E     Q    E  E  H         
------------------------|---------------------|-------7--------------|
------------------------|---------------------|----------7-----------|
--7---------------------|---------------------|--5----------5--------|
---------------(12)S----|--0------------0--0--|----------------------|


   Q     E  Q.     Q       H.             Q         H.           E  E   
------------------------|------------------------|---------------------|
------------------------|------------------------|---------------------|
--10----10--9------9----|--7---------------------|---------------------|
------------------------|---------------(12)S----|--0------------0--0--|


  Q    E  Q    E  Q        Q     E  Q.     Q       E  E  E  Q.     E  E   
----------7------------|------------------------|------------------------|
-------7-------7-------|------------------------|-----5-----4------4-----|
--5---------------5----|--10----10--9------9----|------------------------|
-----------------------|------------------------|--0-----0------------0--|


  Q    E  Q    S S S S S S    E  E  E  Q.     E  E   
---------------------------|------------------------|
---------------------------|-----5-----4------4-----|
---------------------------|------------------------|
--7----0--8----0-0-3-2-3-2-|--0-----0------------0--|


  Q    E  Q    S S S S S S    E  E  E  Q.     E  E   
---------------------------|------------------------|
---------------------------|-----5-----4------4-----|
---------------------------|------------------------|
--7----0--8----0-0-3-2-3-2-|--0-----0------------0--|


  Q    E  Q    S S S S S S    E  E  E  Q.     E  E   
---------------------------|------------------------|
---------------------------|-----5-----4------4-----|
---------------------------|------------------------|
--7----0--8----0-0-3-2-3-2-|--0-----0------------0--|


  Q    E  Q    S S S S S S    W                   E  E  H.            
---------------------------|-------------------|---------------------|
---------------------------|-------------------|---------------------|
---------------------------|-------------------|---------------------|
--7----0--8----0-0-3-2-3-2-|--0----------------|--0------------------|


  H        E   S  E  S  E     E  Q    S E  Q.     S  
---------------------------|------------------------|
---------------------------|------------------------|
--------------12-10--8-10--|--7---------8-----------|
---------------------------|------------------------|


  E  S S S S S E  S  S  E  S  E     E  S S S S S E.  S S S S S S  
---------------------------------|-------------------------------|
---------------------------------|-------------------------------|
--7------------8----12-10--8-10--|--7------------8---------------|
-----0-0-0-0-0----0--------------|-----0-0-0-0-0-----0-0-0-0-0-0-|


  E  S S S S S E  S  S  E  S  E     E  S S S S S E.  S S S  S S S  
---------------------------------|--------------------------------|
---------------------------------|--------------------------------|
--7------------8----12-10--8-10--|--7------------8---------10-9-7-|
-----0-0-0-0-0----0--------------|-----0-0-0-0-0-----0-0-0--------|


  E  S S S S S E  S  S  E  S  E     E  S S S S S E.  S S S S S S  
---------------------------------|-------------------------------|
---------------------------------|-------------------------------|
--7------------8----12-10--8-10--|--7------------8---------------|
-----0-0-0-0-0----0--------------|-----0-0-0-0-0-----0-0-0-0-0-0-|


  E  S S S S S E  S  S  E  S  E     E  S S S S S E.  S S S  S S S  
---------------------------------|--------------------------------|
---------------------------------|--------------------------------|
--7------------8----12-10--8-10--|--7------------8---------10-9-7-|
-----0-0-0-0-0----0--------------|-----0-0-0-0-0-----0-0-0--------|


  E  S S S S S E  S  S  E  S  E     Q    Q    E  S S S E.   
---------------------------------|-------------------------|
---------------------------------|-------------------------|
--7------------8----12-10--8-10--|--7----7----7--7-7-7-8---|
-----0-0-0-0-0----0--------------|-------------------------|


  E  S S E  S S E  S S S E.     E  S S E  S S E  S S E  S S  
-----------------------------|------------------------------|
-----------------------------|------------------------------|
--5--5-5-5--5-5-5--5-5-5-7---|--2--2-2-2--2-2-5--5-5-5--5-5-|
-----------------------------|------------------------------|


  E  S S E  S S S S S S S S S S    Q    Q    E  S S S E.   
--------------------------------|-------------------------|
--------------------------------|-------------------------|
--7--7-7-7--7-7-7-5-5-5-5-3-3-3-|--7----7----7--7-7-7-8---|
--------------------------------|-------------------------|


  E  S S E  S S E  S S S E.     E  S S E  S S E  S S E  S S  
-----------------------------|------------------------------|
-----------------------------|------------------------------|
--5--5-5-5--5-5-5--5-5-5-7---|--2--2-2-2--2-2-5--5-5-5--5-5-|
-----------------------------|------------------------------|


  E  S S E  S S S S S S S S S S    E  S S Q    E  S S S E.   
--------------------------------|---------------------------|
--------------------------------|---------2-----------2-3---|
--7--7-7-7--7-7-7-5-5-5-5-3-3-3-|-------2-------------------|
--------------------------------|--0--0--------0--0-0-------|


  S S S S Q    E  S S S E.     E  S S Q    E  S S Q     
----------------------------|--------------------------|
----------------------------|--------------------------|
--5---5-5-5-------5-5-5-7---|--2--2-2-2----5--5-5-5----|
---------------0------------|--------------------------|


  E  S S E  S S S S S S S S S S    E  S S Q    E  S S S E.   
--------------------------------|---------------------------|
--------------------------------|---------2-----------2-3---|
--7--7-7-7--7-7-7-5-5-5-5-3-3-3-|-------2-------------------|
--------------------------------|--0--0--------0--0-0-------|


  S S S S Q    E  S S S E.     E  S S Q    E  S S Q     
----------------------------|--------------------------|
----------------------------|--------------------------|
--5---5-5-5-------5-5-5-7---|--2--2-2-2----5--5-5-5----|
---------------0------------|--------------------------|


  E  S S E  S S S S S S S S S S    E  S S E  S S E  S S S E.   
--------------------------------|-----------------------------|
--------------------------------|-----------------------------|
--7--7-7-7--7-7-7-5-5-5-5-3-3-3-|--7--7-7-7--7-7-7--7-7-7-8---|
--------------------------------|-----------------------------|


  E  S S E  S S E  S S S E.     E  S S E  S S S S S S E  S S  
-----------------------------|-------------------------------|
-----------------------------|-------------------------------|
--5--5-5-5--5-5-5--5-5-5-7---|--2--2-2-2--2-2-2-5-5-5-5--5-5-|
-----------------------------|-------------------------------|


  S S S S E  S S S S S S S S S S    E  S S E  S S E  S S S E.   
---------------------------------|-----------------------------|
---------------------------------|-----------------------------|
--5-7-7-7-7--7-7-7-5-5-5-5-3-3-3-|--7--7-7-7--7-7-7--7-7-7-8---|
---------------------------------|-----------------------------|


  E  S S E  S S E  S S S E.     E  S S E  S S S S S S E  S S  
-----------------------------|-------------------------------|
-----------------------------|-------------------------------|
--5--5-5-5--5-5-5--5-5-5-7---|--2--2-2-2--2-2-2-5-5-5-5--5-5-|
-----------------------------|-------------------------------|


  S S S S E  S S S S S S S S S S    E  S S E  S S E  S S S E.   
---------------------------------|-----------------------------|
---------------------------------|-----------------------------|
--5-7-7-7-7--7-7-7-5-5-5-5-3-3-3-|--7--7-7-7--7-7-7--7-7-7-8---|
---------------------------------|-----------------------------|


  E  S S E  S S E  S S S E.     E  S S E  S S S S S S E  S S  
-----------------------------|-------------------------------|
-----------------------------|-------------------------------|
--5--5-5-5--5-5-5--5-5-5-7---|--2--2-2-2--2-2-2-5-5-5-5--5-5-|
-----------------------------|-------------------------------|


  S S S S E  S S S S S S S S S S    E  S S E  S S E  S S S E.   
---------------------------------|-----------------------------|
---------------------------------|-----------------------------|
--5-7-7-7-7--7-7-7-5-5-5-5-3-3-3-|--7--7-7-7--7-7-7--7-7-7-8---|
---------------------------------|-----------------------------|


  E  S S E  S S E  S S S E.     E  S S E  S S S S S S E  S S  
-----------------------------|-------------------------------|
-----------------------------|-------------------------------|
--5--5-5-5--5-5-5--5-5-5-7---|--2--2-2-2--2-2-2-5-5-5-5--5-5-|
-----------------------------|-------------------------------|


  S S S S E  S S S S S S S S S S    H.           E  S S  
---------------------------------|----------------------|
---------------------------------|----------------------|
--5-7-7-7-7--7-7-7-5-5-5-5-3-3-3-|----------------------|
---------------------------------|--0------------L--0-0-|


  E  H        E   Q         Q    E  E  H            Q     E  Q.     Q     
-------------------------|-------7--------------|------------------------|
-------------------------|----------7-----------|------------------------|
--5--7--------L--(7)S----|--5----------5--------|--10----10--9------9----|
-------------------------|----------------------|------------------------|


  E  E  E  Q    Q     E     H.           E  E     Q    E  E  H         
-------------------------|---------------------|-------7--------------|
-----5--7--9----7--------|---------------------|----------7-----------|
--7------------------10--|---------------------|--5----------5--------|
-------------------------|--0------------0--0--|----------------------|


   Q     E  Q.     Q       H.             Q         H.           E  E   
------------------------|------------------------|---------------------|
------------------------|------------------------|---------------------|
--10----10--9------9----|--7---------------------|---------------------|
------------------------|---------------(12)S----|--0------------0--0--|


  Q    E  Q    E  Q        Q     E  Q.     Q       E  E  E  Q.     E  E   
----------7------------|------------------------|------------------------|
-------7-------7-------|------------------------|-----5-----4------4-----|
--5---------------5----|--10----10--9------9----|------------------------|
-----------------------|------------------------|--0-----0------------0--|


  Q    E  Q    S S S S S S    E  E  E  Q.     E  E   
---------------------------|------------------------|
---------------------------|-----5-----4------4-----|
---------------------------|------------------------|
--7----0--8----0-0-3-2-3-2-|--0-----0------------0--|


  Q    E  Q    S S S S S S    E  E  E  Q.     E  E   
---------------------------|------------------------|
---------------------------|-----5-----4------4-----|
---------------------------|------------------------|
--7----0--8----0-0-3-2-3-2-|--0-----0------------0--|


  Q    E  Q    S S S S S S    E  E  E  Q.     E  E   
---------------------------|------------------------|
---------------------------|-----5-----4------4-----|
---------------------------|------------------------|
--7----0--8----0-0-3-2-3-2-|--0-----0------------0--|


  Q    E  Q    S S S S S S    E  S S S S S E.  S S S S S S  
---------------------------|-------------------------------|
---------------------------|-------------------------------|
---------------------------|--7------------8---------------|
--7----0--8----0-0-3-2-3-2-|-----0-0-0-0-0-----0-0-0-0-0-0-|


  E  S S S S S E  S  S  E  S  E     E  S S S S S E.  S S S  S S S  
---------------------------------|--------------------------------|
---------------------------------|--------------------------------|
--7------------8----12-10--8-10--|--7------------8---------10-9-7-|
-----0-0-0-0-0----0--------------|-----0-0-0-0-0-----0-0-0--------|


  E  S S S S S E  S  S  E  S  E     E  S S S S S E.  S S S S S S  
---------------------------------|-------------------------------|
---------------------------------|-------------------------------|
--7------------8----12-10--8-10--|--7------------8---------------|
-----0-0-0-0-0----0--------------|-----0-0-0-0-0-----0-0-0-0-0-0-|


  E  S S S S S E  S  S  E  S  E     E  S S S S S E.  S S S  S S S  
---------------------------------|--------------------------------|
---------------------------------|--------------------------------|
--7------------8----12-10--8-10--|--7------------8---------10-9-7-|
-----0-0-0-0-0----0--------------|-----0-0-0-0-0-----0-0-0--------|


  E  S S S S S E  S  S  E  S  E     E  S T T S S S E.  S S T T S S S  
---------------------------------|-----------------------------------|
---------------------------------|-----------------------------------|
--7------------8----12-10--8-10--|--7--------------8-----------------|
-----0-0-0-0-0----0--------------|-----0-0-0-0-0-0-----0-0-0-0-0-0-0-|


  E  S T T S S S E  S  S  E  S  E     E  S T T S S S E.  S S S  S S S  
-----------------------------------|----------------------------------|
-----------------------------------|----------------------------------|
--7--------------8----12-10--8-10--|--7--------------8---------10-9-7-|
-----0-0-0-0-0-0----0--------------|-----0-0-0-0-0-0-----0-0-0--------|


  E  S T T S S S E  S  S  E  S  E     E  S T T S S S E.  S S T T S S S  
-----------------------------------|-----------------------------------|
-----------------------------------|-----------------------------------|
--7--------------8----12-10--8-10--|--7--------------8-----------------|
-----0-0-0-0-0-0----0--------------|-----0-0-0-0-0-0-----0-0-0-0-0-0-0-|


  E  S T T S S S E  S  S  E  S  E     E  S T T S S S E.  S S S  S S S  
-----------------------------------|----------------------------------|
-----------------------------------|----------------------------------|
--7--------------8----12-10--8-10--|--7--------------8---------10-9-7-|
-----0-0-0-0-0-0----0--------------|-----0-0-0-0-0-0-----0-0-0--------|


  E  S T T S S S E  S  S  E  S  E     W                   W                 
-----------------------------------|-------------------|-------------------|
-----------------------------------|-------------------|-------------------|
--7--------------8----12-10--8-10--|--7----------------|--L----------------|
-----0-0-0-0-0-0----0--------------|-------------------|-------------------|


  W                   Q.     Q    E  E  E     W                 
-------------------|-----------------------|-------------------|
-------------------|-----------------------|-------------------|
--L----------------|--3--------------------|-------------------|
-------------------|---------2----3--2--0--|--0----------------|


  W                   W                   W                  
-------------------|-------------------|-------------------||
-------------------|-------------------|-------------------||
-------------------|-------------------|-------------------||
--L----------------|--L----------------|--L----------------||




Duration Legend
---------------
W - whole
H - half
Q - quarter
E - 8th
S - 16th
T - 32nd
X - 64th
. - note dotted
|-n-|  - n-tuplets


Tablature Legend
----------------
L - tied note
x - dead note
g - grace note
(n) - ghost note
> - accentuded note
NH - natural harmonic
AH - artificial harmonic
TH - tapped harmonic
SH - semi harmonic
PH - pitch harmonic
h - hammer on
p - pull off
b - bend
br - bendRelease
pb - preBend
pbr - preBendRelease
brb - bendReleaseBend
\n/ - tremolo bar dip
\n - tremolo bar dive
-/n - tremolo bar Release up
/n\ - tremolo bar inverted dip
/n - tremolo bar return
-\n - tremolo bar Release down
S - shift slide
s - legato slide
/ -  slide into from below or out of upwards
\ -  slide into from above or out of downwards
~ - vibrato
W - wide vibrato
tr - trill
TP - tremolo picking
T - tapping
S - slap
P - pop
< - fade in
^ - brush up
v - brush down

            
            
Suggest correction
Creating personal tab
Creating personal tab
You can edit any tab online and save it as your Personal.

You can edit, replace or remove any tab part or add personal notes – all changes will be seen only by you.

Personal tabs can be accessed anytime from any device, even offline.
Learn more »
Give kudos to tab author, rate the tab!
1 2 3 4 5
comments
print report bad tab
guest
You may want to rate the tab now too:
select rating
Wanna post a correction for this tab? Suggest correction