Oops, an error
Loading. Please wait.

Dantes Inferno bass

version 1
version 1

Whole song

Interactive

597 views 1 this week
no commentswrite comment
1 2 3 4 5
3 more votes to show rating
add to favorites
×
Save as Personal and add changes to this tab that will be seen only by you. Learn more ›
×
You can save this tab as Personal to edit and correct it or add notes. All changes will be seen only by you. Learn more »
launch autoscroll
font size
0
reset
guitar tuner
edit
Autoscroll
slow
fast
+/-
esc
set tempo
stop
Dante's Inferno                                 

Transcribed by an unregistered user

                                                                      Iced Earth
Dave



      W                   H        Q    E  E     W                 
F#||-------------------|----------------------|-------------------|
C#||-------------------|----------------------|-------------------|
G#||--7----------------|--L--------L----L--7--|--6----------------|
D#||-------------------|----------------------|-------------------|


  W                   W                   H        Q    E  E   
-------------------|-------------------|----------------------|
-------------------|-------------------|----------------------|
--L----------------|--7----------------|--L--------L----L--7--|
-------------------|-------------------|----------------------|


  W                   W                   W                 
-------------------|-------------------|-------------------|
-------------------|-------------------|-------------------|
--6----------------|--L----------------|--7----------------|
-------------------|-------------------|--0----------------|


  H        Q    E  E     W                   W                 
----------------------|-------------------|-------------------|
----------------------|-------------------|-------------------|
--L--------L----L--7--|--6----------------|--L----------------|
--L--------L----L-----|-------------------|-------------------|


  W                   H        Q    E  E     W                 
-------------------|----------------------|-------------------|
-------------------|----------------------|-------------------|
--7----------------|--L--------L----L--7--|--6----------------|
--0----------------|--L--------L----L-----|-------------------|


  W                   W                   H        Q    E  E   
-------------------|-------------------|----------------------|
-------------------|-------------------|----------------------|
--L----------------|--7----------------|--L--------L----L--7--|
-------------------|--0----------------|--L--------L----L-----|


  W                   W                   W                 
-------------------|-------------------|-------------------|
-------------------|-------------------|-------------------|
--6----------------|--L----------------|--7----------------|
-------------------|-------------------|--0----------------|


  H        Q    E  E     W                   W                 
----------------------|-------------------|-------------------|
----------------------|-------------------|-------------------|
--L--------L----L--7--|--6----------------|--L----------------|
--L--------L----L-----|-------------------|-------------------|


  W                   W                   W                 
-------------------|-------------------|-------------------|
-------------------|-------------------|-------------------|
--5----------------|--L----------------|--3----------------|
-------------------|-------------------|-------------------|


  H        Q    E  E     W                   W                 
----------------------|-------------------|-------------------|
----------------------|-------------------|-------------------|
--L--------L----L--3--|--5----------------|--L----------------|
----------------------|-------------------|-------------------|


  W                   H        Q    E  E     W                 
-------------------|----------------------|-------------------|
-------------------|----------------------|-------------------|
--3----------------|--L--------L----L--3--|--5----------------|
-------------------|----------------------|-------------------|


  W                   W                   H        Q    E  E   
-------------------|-------------------|----------------------|
-------------------|-------------------|----------------------|
--L----------------|--3----------------|--L--------L----L--3--|
-------------------|-------------------|----------------------|


  W                   W                   W                 
-------------------|-------------------|-------------------|
-------------------|-------------------|-------------------|
--5----------------|--L----------------|--3----------------|
-------------------|-------------------|-------------------|


  H        Q    E  E     W                   H        Q    E  E   
----------------------|-------------------|----------------------|
----------------------|-------------------|----------------------|
--L--------L----L--3--|--7----------------|--L--------L----L--7--|
----------------------|--0----------------|--L--------L----L-----|


  W                   W                   W                 
-------------------|-------------------|-------------------|
-------------------|-------------------|-------------------|
--6----------------|--L----------------|--7----------------|
-------------------|-------------------|--0----------------|


  H        Q    E  E     W                   W                 
----------------------|-------------------|-------------------|
----------------------|-------------------|-------------------|
--L--------L----L--7--|--6----------------|--L----------------|
--L--------L----L-----|-------------------|-------------------|


  W                   H        Q    E  E     W                 
-------------------|----------------------|-------------------|
-------------------|----------------------|-------------------|
--7----------------|--L--------L----L--7--|--6----------------|
--0----------------|--L--------L----L-----|-------------------|


  W                   W                   H        Q    E  E   
-------------------|-------------------|----------------------|
-------------------|-------------------|----------------------|
--L----------------|--7----------------|--L--------L----L--7--|
-------------------|--0----------------|--L--------L----L-----|


  W                   W                   H        E  E  E  E   
-------------------|-------------------|-----------------------|
-------------------|-------------------|-----------------------|
--6----------------|--L----------------|--7--------L--7-----7--|
-------------------|-------------------|--0--------L--0-----0--|


  H        E  E  E  E     H        E  E  E  E     W                 
-----------------------|-----------------------|-------------------|
-----------------------|-----------------------|-------------------|
--L--------L--7-----6--|--L--------L--6-----6--|--L----------------|
--L--------L--0--------|-----------------------|-------------------|


  H        E  E  E  E     H        E  E  E  E     H        E  E  E  E   
-----------------------|-----------------------|-----------------------|
-----------------------|-----------------------|-----------------------|
--7--------L--7-----7--|--L--------L--7-----6--|--L--------L--6-----6--|
--0--------L--0-----0--|--L--------L--0--------|-----------------------|


  W                   H        E  E  E  E     H        E  E  E  E   
-------------------|-----------------------|-----------------------|
-------------------|-----------------------|-----------------------|
--L----------------|--7--------L--7-----7--|--L--------L--7-----6--|
-------------------|--0--------L--0-----0--|--L--------L--0--------|


  H        E  E  E  E     W                   H        E  E  E  E   
-----------------------|-------------------|-----------------------|
-----------------------|-------------------|-----------------------|
--L--------L--6-----6--|--L----------------|--7--------L--7-----7--|
-----------------------|-------------------|--0--------L--0-----0--|


  H        E  E  E  E     H        E  E  E  E     W                 
-----------------------|-----------------------|-------------------|
-----------------------|-----------------------|-------------------|
--L--------L--7-----6--|--L--------L--6-----6--|--L----------------|
--L--------L--0--------|-----------------------|-------------------|


  W                   W                   E  S S E  Q    E  S S E   
-------------------|-------------------|---------------------------|
-------------------|-------------------|---------------------------|
-------------------|-------------------|--5--2-2-5----------3-3-0--|
--0----------------|-------------------|------------1----1---------|


  E   E  E  S S E  E  S S E     E  S S E  E  S S E  S S E   
-----------------------------|-----------------------------|
-----------------------------|-----------------------------|
--5h--7----------------------|-----------------------------|
---------0--0-0-0--0--0-0-0--|--0--0-0-0--0--0-0-0--0-0-0--|


  E   E  E  S S E  E  S S E     E  S S E  Q    E  S S E   
-----------------------------|---------------------------|
-----------------------------|---------------------------|
--5h--7----------------------|--5--2-2-5----------3-3-0--|
---------0--0-0-0--0--0-0-0--|------------1----1---------|


  E   E  E  S S E  E  S S E     E  S S E  E  S S E  S S E   
-----------------------------|-----------------------------|
-----------------------------|-----------------------------|
--5h--7----------------------|-----------------------------|
---------0--0-0-0--0--0-0-0--|--0--0-0-0--0--0-0-0--0-0-0--|


  E   E  E  S S E  E  S S E     E  S S E  Q    E  S S E   
-----------------------------|---------------------------|
-----------------------------|---------------------------|
--5h--7----------------------|--5--2-2-5----------3-3-0--|
---------0--0-0-0--0--0-0-0--|------------1----1---------|


  S S E  Q    E  Q.        S S E  Q    E  Q.        S S E  Q    E  Q.      
------------------------|------------------------|------------------------|
------------------------|------------------------|------------------------|
------------------------|------------------------|------------------------|
--3-3-3--3----3--3------|--3-3-3--3----3--3------|--3-3-3--3----3--3------|


  S S E  Q    E  Q    E  S S E     E   E  E  S S E  E  S S E   
--------------------------------|-----------------------------|
--------------------------------|-----------------------------|
--------------------------------|--5h--7----------------------|
--3-3-3--3----3--3----3--3-3-3--|---------0--0-0-0--0--0-0-0--|


  E  S S E  Q    E  S S E     E   E  E  S S E  E  S S E   
---------------------------|-----------------------------|
---------------------------|-----------------------------|
--5--2-2-5----------3-3-0--|--5h--7----------------------|
------------1----1---------|---------0--0-0-0--0--0-0-0--|


  E  S S E  E  S S E  S S E     E   E  E  S S E  E  S S E   
-----------------------------|-----------------------------|
-----------------------------|-----------------------------|
-----------------------------|--5h--7----------------------|
--0--0-0-0--0--0-0-0--0-0-0--|---------0--0-0-0--0--0-0-0--|


  E  S S E  Q    E  S S E     E   E  E  S S E  E  S S E   
---------------------------|-----------------------------|
---------------------------|-----------------------------|
--5--2-2-5----------3-3-0--|--5h--7----------------------|
------------1----1---------|---------0--0-0-0--0--0-0-0--|


  E  S S E  E  S S E  S S E     E   E  E  S S E  E  S S E   
-----------------------------|-----------------------------|
-----------------------------|-----------------------------|
-----------------------------|--5h--7----------------------|
--0--0-0-0--0--0-0-0--0-0-0--|---------0--0-0-0--0--0-0-0--|


  E  S S E  Q    E  S S E     E   E  E  S S E  E  S S E   
---------------------------|-----------------------------|
---------------------------|-----------------------------|
--5--2-2-5----------3-3-0--|--5h--7----------------------|
------------1----1---------|---------0--0-0-0--0--0-0-0--|


  E  S S E  E  S S E  S S E     E   E  E  S S E  E  S S E   
-----------------------------|-----------------------------|
-----------------------------|-----------------------------|
-----------------------------|--5h--7----------------------|
--0--0-0-0--0--0-0-0--0-0-0--|---------0--0-0-0--0--0-0-0--|


  E  S S E  Q    E  S S E     E   E  E  S S E  E  S S E   
---------------------------|-----------------------------|
---------------------------|-----------------------------|
--5--2-2-5----------3-3-0--|--5h--7----------------------|
------------1----1---------|---------0--0-0-0--0--0-0-0--|


  E  S S E  E  S S E  S S E     S S E  Q    E  Q.        S S E  Q    E  Q.      
-----------------------------|------------------------|------------------------|
-----------------------------|------------------------|------------------------|
-----------------------------|------------------------|------------------------|
--0--0-0-0--0--0-0-0--0-0-0--|--3-3-3--3----3--3------|--3-3-3--3----3--3------|


  S S E  Q    E  Q.        S S E  Q    E  Q    E  S S E   
------------------------|--------------------------------|
------------------------|--------------------------------|
------------------------|--------------------------------|
--3-3-3--3----3--3------|--3-3-3--3----3--3----3--3-3-3--|


  E   E  E  S S E  E  S S E     E  S S E  Q    E  S S E   
-----------------------------|---------------------------|
-----------------------------|---------------------------|
--5h--7----------------------|--5--2-2-5----------3-3-0--|
---------0--0-0-0--0--0-0-0--|------------1----1---------|


  E   E  E  S S E  E  S S E     E  S S E  E  S S E  S S E   
-----------------------------|-----------------------------|
-----------------------------|-----------------------------|
--5h--7----------------------|-----------------------------|
---------0--0-0-0--0--0-0-0--|--0--0-0-0--0--0-0-0--0-0-0--|


  E   E  E  S S E  E  S S E     E  S S E  Q    E  S S E   
-----------------------------|---------------------------|
-----------------------------|---------------------------|
--5h--7----------------------|--5--2-2-5----------3-3-0--|
---------0--0-0-0--0--0-0-0--|------------1----1---------|


  E   E  E  S S E  E  S S E     E  S S E  E  S S E  S S E   
-----------------------------|-----------------------------|
-----------------------------|-----------------------------|
--5h--7----------------------|-----------------------------|
---------0--0-0-0--0--0-0-0--|--0--0-0-0--0--0-0-0--0-0-0--|


  E   E  E  S S E  E  S S E     E  S S E  Q    E  S S E   
-----------------------------|---------------------------|
-----------------------------|---------------------------|
--5h--7----------------------|--5--2-2-5----------3-3-0--|
---------0--0-0-0--0--0-0-0--|------------1----1---------|


  E   E  E  S S E  E  S S E     E  S S E  E  S S E  S S E   
-----------------------------|-----------------------------|
-----------------------------|-----------------------------|
--5h--7----------------------|-----------------------------|
---------0--0-0-0--0--0-0-0--|--0--0-0-0--0--0-0-0--0-0-0--|


  E   E  E  S S E  E  S S E     E  S S E  Q    E  S S E   
-----------------------------|---------------------------|
-----------------------------|---------------------------|
--5h--7----------------------|--5--2-2-5----------3-3-0--|
---------0--0-0-0--0--0-0-0--|------------1----1---------|


  E   E  E  S S E  E  S S E     E  S S E  E  S S E  S S E   
-----------------------------|-----------------------------|
-----------------------------|-----------------------------|
--5h--7----------------------|-----------------------------|
---------0--0-0-0--0--0-0-0--|--0--0-0-0--0--0-0-0--0-0-0--|


  S S E  Q    E  Q.        S S E  Q    E  Q.        S S E  Q    E  Q.      
------------------------|------------------------|------------------------|
------------------------|------------------------|------------------------|
------------------------|------------------------|------------------------|
--3-3-3--3----3--3------|--3-3-3--3----3--3------|--3-3-3--3----3--3------|


  S S E  Q    E  Q    E  S S E     H.           E  E   
--------------------------------|---------------------|
--------------------------------|---------------------|
--------------------------------|---------------2--2--|
--3-3-3--3----3--3----3--3-3-3--|--0------------------|


  E  E  E  E  E  E  E  E     H.           E  E     E  E  E  E  E  E  E  E   
--------------------------|---------------------|--------------------------|
--------------------------|---------------------|--------------------------|
--------5--2--2--2--0-----|---------------3--3--|--------5-----5-----5-----|
--1--0-----------------1--|--1------------------|--1--0-----1-----1-----1--|


  H.           E  E     E  E  E  E  E  E  E  E     H.           E  E   
---------------------|--------------------------|---------------------|
---------------------|--------------------------|---------------------|
---------------2--2--|--------5--2--2--2--0-----|---------------3--3--|
--0------------------|--1--0-----------------1--|--1------------------|


  E  E  E  E  E  E  E  E     H.           E  E     E  E  E  E  E  E  E  E   
--------------------------|---------------------|--------------------------|
--------------------------|---------------------|--------------------------|
--------5-----5-----5-----|---------------2--2--|--------5--2--2--2--0-----|
--1--0-----1-----1-----1--|--0------------------|--1--0-----------------1--|


  H.           E  E     E  E  E  E  E  E  E  E     H.           E  E   
---------------------|--------------------------|---------------------|
---------------------|--------------------------|---------------------|
---------------3--3--|--------5-----5-----5-----|---------------2--2--|
--1------------------|--1--0-----1-----1-----1--|--0------------------|


  E  E  E  E  E  E  E  E     H.           E  E     E  E  E  E  E  E  E  E   
--------------------------|---------------------|--------------------------|
--------------------------|---------------------|--------------------------|
--------5--2--2--2--0-----|---------------3--3--|--------5-----5-----5-----|
--1--0-----------------1--|--1------------------|--1--0-----1-----1-----1--|


  E  S S E  Q    E  S S E     E   E  E  S S E  E  S S E   
---------------------------|-----------------------------|
---------------------------|-----------------------------|
--5--2-2-5----------3-3-0--|--5h--7----------------------|
------------1----1---------|---------0--0-0-0--0--0-0-0--|


  E  S S E  Q    E  S S E     E   E  E  S S E  E  S S E   
---------------------------|-----------------------------|
---------------------------|-----------------------------|
--5--2-2-5----------3-3-0--|--5h--7----------------------|
------------1----1---------|---------0--0-0-0--0--0-0-0--|


  E  S S E  E  S S E  S S E     E   E  E  S S E  E  S S E   
-----------------------------|-----------------------------|
-----------------------------|-----------------------------|
-----------------------------|--5h--7----------------------|
--0--0-0-0--0--0-0-0--0-0-0--|---------0--0-0-0--0--0-0-0--|


  E  S S E  Q    E  S S E     E   E  E  S S E  E  S S E   
---------------------------|-----------------------------|
---------------------------|-----------------------------|
--5--2-2-5----------3-3-0--|--5h--7----------------------|
------------1----1---------|---------0--0-0-0--0--0-0-0--|


  E  S S E  E  S S E  S S E     E   E  E  S S E  E  S S E   
-----------------------------|-----------------------------|
-----------------------------|-----------------------------|
-----------------------------|--5h--7----------------------|
--0--0-0-0--0--0-0-0--0-0-0--|---------0--0-0-0--0--0-0-0--|


  E  S S E  Q    E  S S E     E   E  E  S S E  E  S S E   
---------------------------|-----------------------------|
---------------------------|-----------------------------|
--5--2-2-5----------3-3-0--|--5h--7----------------------|
------------1----1---------|---------0--0-0-0--0--0-0-0--|


  E  S S E  E  S S E  S S E     E   E  E  S S E  E  S S E   
-----------------------------|-----------------------------|
-----------------------------|-----------------------------|
-----------------------------|--5h--7----------------------|
--0--0-0-0--0--0-0-0--0-0-0--|---------0--0-0-0--0--0-0-0--|


  E  S S E  Q    E  S S E     E   E  E  S S E  E  S S E   
---------------------------|-----------------------------|
---------------------------|-----------------------------|
--5--2-2-5----------3-3-0--|--5h--7----------------------|
------------1----1---------|---------0--0-0-0--0--0-0-0--|


  E  S S E  E  S S E  S S E     S S E  Q    E  Q.        S S E  Q    E  Q.      
-----------------------------|------------------------|------------------------|
-----------------------------|------------------------|------------------------|
-----------------------------|------------------------|------------------------|
--0--0-0-0--0--0-0-0--0-0-0--|--3-3-3--3----3--3------|--3-3-3--3----3--3------|


  S S E  Q    E  Q.        S S E  Q    E  Q    E  S S E     H.           E  E   
------------------------|--------------------------------|---------------------|
------------------------|--------------------------------|---------------------|
------------------------|--------------------------------|---------------2--2--|
--3-3-3--3----3--3------|--3-3-3--3----3--3----3--3-3-3--|--0------------------|


  E  E  E  E  E  E  E  E     H.           E  E     E  E  E  E  E  E  E  E   
--------------------------|---------------------|--------------------------|
--------------------------|---------------------|--------------------------|
--------5--2--2--2--0-----|---------------3--3--|--------5-----5-----5-----|
--1--0-----------------1--|--1------------------|--1--0-----1-----1-----1--|


  H.           E  E     E  E  E  E  E  E  E  E     H.           E  E   
---------------------|--------------------------|---------------------|
---------------------|--------------------------|---------------------|
---------------2--2--|--------5--2--2--2--0-----|---------------3--3--|
--0------------------|--1--0-----------------1--|--1------------------|


  E  E  E  E  E  E  E  E     H.           E  E     E  E  E  E  E  E  E  E   
--------------------------|---------------------|--------------------------|
--------------------------|---------------------|--------------------------|
--------5-----5-----5-----|---------------2--2--|--------5--2--2--2--0-----|
--1--0-----1-----1-----1--|--0------------------|--1--0-----------------1--|


  H.           E  E     E  E  E  E  E  E  E  E     H.           E  E   
---------------------|--------------------------|---------------------|
---------------------|--------------------------|---------------------|
---------------3--3--|--------5-----5-----5-----|---------------2--2--|
--1------------------|--1--0-----1-----1-----1--|--0------------------|


  E  E  E  E  E  E  E  E     H.           E  E     E  E  E  E  E  E  E  E   
--------------------------|---------------------|--------------------------|
--------------------------|---------------------|--------------------------|
--------5--2--2--2--0-----|---------------3--3--|--------5-----5-----5-----|
--1--0-----------------1--|--1------------------|--1--0-----1-----1-----1--|


  E  S S E  E  E   E  E  E     E   E  E  E  E  E  E  E   
----------------------------|---------------------------|
----------------------------|---------------------------|
----------------------------|---------------------------|
--0--0-0-0--0--3S--2--0--0--|--2S--1--0--0--0--0--0--1--|


  E  S S E  E  E   E  E  E     E   E  E  E  E  E  E  E   
----------------------------|---------------------------|
----------------------------|---------------------------|
----------------------------|---------------------------|
--0--0-0-0--0--3S--2--0--0--|--2S--1--0--0--0--0--2--0--|


  E  S S E  E  E   E  E  E     E   E  E  E  E  E  E  E   
----------------------------|---------------------------|
----------------------------|---------------------------|
----------------------------|---------------------------|
--0--0-0-0--0--3S--2--0--0--|--2S--1--0--0--0--0--0--1--|


  E  S S E  E  E   E  E  E     E   E  E  E  E  E  E  E   
----------------------------|---------------------------|
----------------------------|---------------------------|
----------------------------|---------------------------|
--0--0-0-0--0--3S--2--0--0--|--2S--1--0--0--0--0--2--0--|


  E  S S E  E  E   E  E  E     E   E  E  E  E  E  E  E   
----------------------------|---------------------------|
----------------------------|---------------------------|
----------------------------|---------------------------|
--0--0-0-0--0--3S--2--0--0--|--2S--1--0--0--0--0--0--1--|


  E  S S E  E  E   E  E  E     E   E  E  E  E  E  E  E   
----------------------------|---------------------------|
----------------------------|---------------------------|
----------------------------|---------------------------|
--0--0-0-0--0--3S--2--0--0--|--2S--1--0--0--0--0--2--0--|


  E  S S E  E  E   E  E  E     E   E  E  E  E  E  E  E   
----------------------------|---------------------------|
----------------------------|---------------------------|
----------------------------|---------------------------|
--0--0-0-0--0--3S--2--0--0--|--2S--1--0--0--0--0--0--1--|


  E  S S E  E  E   E  E  E     E   E  E  E  E  E  E  E   
----------------------------|---------------------------|
----------------------------|---------------------------|
----------------------------|---------------------------|
--0--0-0-0--0--3S--2--0--0--|--2S--1--0--0--0--0--2--0--|


  E  S S E  E  E  E  E   E     E  S S E  E  E  E   Q     
----------------------------|---------------------------|
----------------------------|---------------------------|
--7--7-7-7--7--8--7--5S--7--|--7--7-7-7--7--8--7--10----|
----------------------------|---------------------------|


  E  S S E  E   E  E  E   E     E  S S E  E  E  E  Q     
-----------------------------|--------------------------|
-----------------------------|--------------------------|
--8--8-8-8--8--10--8--7S--8--|--5--5-5-5--5--7--5-------|
-----------------------------|---------------------6----|


  E  S S E  E  E  E  E   E     E  S S E  E  E  E   Q     
----------------------------|---------------------------|
----------------------------|---------------------------|
--7--7-7-7--7--8--7--5S--7--|--7--7-7-7--7--8--7--10----|
----------------------------|---------------------------|


  E  S S E  E   E  E  E   E     E  S S E  E  E  E  Q     
-----------------------------|--------------------------|
-----------------------------|--------------------------|
--8--8-8-8--8--10--8--7S--8--|--5--5-5-5--5--7--5-------|
-----------------------------|---------------------6----|


  E  S S E  E  E  E  E   E     E  S S E  E  E  E   Q     
----------------------------|---------------------------|
----------------------------|---------------------------|
--7--7-7-7--7--8--7--5S--7--|--7--7-7-7--7--8--7--10----|
----------------------------|---------------------------|


  E  S S E  E   E  E  E   E     E  S S E  E  E  E  Q     
-----------------------------|--------------------------|
-----------------------------|--------------------------|
--8--8-8-8--8--10--8--7S--8--|--5--5-5-5--5--7--5-------|
-----------------------------|---------------------6----|


  E  S S E  E  E  E  E   E     E  S S E  E  E  E   Q     
----------------------------|---------------------------|
----------------------------|---------------------------|
--7--7-7-7--7--8--7--5S--7--|--7--7-7-7--7--8--7--10----|
----------------------------|---------------------------|


  E  S S E  E   E  E  E   E     E  S S E  E  E  E  Q     
-----------------------------|--------------------------|
-----------------------------|--------------------------|
--8--8-8-8--8--10--8--7S--8--|--5--5-5-5--5--7--5-------|
-----------------------------|---------------------6----|


  |--3--|  |--3--|       |--3--|     |--3--|       |--3--|        
  E  E  E  E  E  E  Q    E  E  E     E  E  E  Q    E  E  E  Q     
----------------------------------|------------------------------|
----------------------------------|------------------------------|
----------------------------------|------------------------------|
--0--0--0--0--0--0--0----0--0--0--|--0--0--0--0----0--0--0--3----|


  |--3--|  |--3--|       |--3--|     |--3--|       |--3--|        
  E  E  E  E  E  E  Q    E  E  E     E  E  E  Q    E  E  E  Q     
----------------------------------|------------------------------|
----------------------------------|------------------------------|
----------------------------------|------------------------------|
--0--0--0--0--0--0--0----0--0--0--|--0--0--0--0----0--0--0--3----|


  |--3--|  |--3--|       |--3--|     |--3--|       |--3--|        
  E  E  E  E  E  E  Q    E  E  E     E  E  E  Q    E  E  E  Q     
----------------------------------|------------------------------|
----------------------------------|------------------------------|
--1--1--1--1--1--1--1----0--0--0--|--0--0--0--0----0--0--0--0----|
----------------------------------|------------------------------|


  |--3--|  |--3--|       |--3--|     |--3--|       |--3--|        
  E  E  E  E  E  E  Q    E  E  E     E  E  E  Q    E  E  E  Q     
----------------------------------|------------------------------|
----------------------------------|------------------------------|
--1--1--1--1--1--1--1----0--0--0--|--0--0--0--0----0--0--0--0----|
----------------------------------|------------------------------|


  |--3--|  |--3--|       |--3--|     |--3--|       |--3--|        
  E  E  E  E  E  E  Q    E  E  E     E  E  E  Q    E  E  E  Q     
----------------------------------|------------------------------|
----------------------------------|------------------------------|
----------------------------------|------------------------------|
--0--0--0--0--0--0--0----0--0--0--|--0--0--0--0----0--0--0--3----|


  |--3--|  |--3--|       |--3--|     |--3--|       |--3--|        
  E  E  E  E  E  E  Q    E  E  E     E  E  E  Q    E  E  E  Q     
----------------------------------|------------------------------|
----------------------------------|------------------------------|
----------------------------------|------------------------------|
--0--0--0--0--0--0--0----0--0--0--|--0--0--0--0----0--0--0--3----|


  |--3--|  |--3--|       |--3--|     |--3--|       |--3--|        
  E  E  E  E  E  E  Q    E  E  E     E  E  E  Q    E  E  E  Q     
----------------------------------|------------------------------|
----------------------------------|------------------------------|
--1--1--1--1--1--1--1----0--0--0--|--0--0--0--0----0--0--0--0----|
----------------------------------|------------------------------|


  |--3--|  |--3--|       |--3--|     |--3--|       |--3--|        
  E  E  E  E  E  E  Q    E  E  E     E  E  E  Q    E  E  E  Q     
----------------------------------|------------------------------|
----------------------------------|------------------------------|
--1--1--1--1--1--1--1----0--0--0--|--0--0--0--0----0--0--0--0----|
----------------------------------|------------------------------|


  |--3--|  |--3--|       |--3--|     |--3--|       |--3--|        
  E  E  E  E  E  E  Q    E  E  E     E  E  E  Q    E  E  E  Q     
----------------------------------|------------------------------|
----------------------------------|------------------------------|
----------------------------------|------------------------------|
--0--0--0--0--0--0--0----0--0--0--|--0--0--0--0----0--0--0--3----|


  |--3--|  |--3--|       |--3--|     |--3--|       |--3--|        
  E  E  E  E  E  E  Q    E  E  E     E  E  E  Q    E  E  E  Q     
----------------------------------|------------------------------|
----------------------------------|------------------------------|
----------------------------------|------------------------------|
--0--0--0--0--0--0--0----0--0--0--|--0--0--0--0----0--0--0--3----|


  |--3--|  |--3--|       |--3--|     |--3--|       |--3--|        
  E  E  E  E  E  E  Q    E  E  E     E  E  E  Q    E  E  E  Q     
----------------------------------|------------------------------|
----------------------------------|------------------------------|
--1--1--1--1--1--1--1----0--0--0--|--0--0--0--0----0--0--0--0----|
----------------------------------|------------------------------|


  |--3--|  |--3--|       |--3--|     |--3--|       |--3--|        
  E  E  E  E  E  E  Q    E  E  E     E  E  E  Q    E  E  E  Q     
----------------------------------|------------------------------|
----------------------------------|------------------------------|
--1--1--1--1--1--1--1----0--0--0--|--0--0--0--0----0--0--0--0----|
----------------------------------|------------------------------|


  |--3--|  |--3--|       |--3--|     |--3--|       |--3--|        
  E  E  E  E  E  E  Q    E  E  E     E  E  E  Q    E  E  E  Q     
----------------------------------|------------------------------|
----------------------------------|------------------------------|
----------------------------------|------------------------------|
--0--0--0--0--0--0--0----0--0--0--|--0--0--0--0----0--0--0--3----|


  |--3--|  |--3--|       |--3--|     |--3--|       |--3--|        
  E  E  E  E  E  E  Q    E  E  E     E  E  E  Q    E  E  E  Q     
----------------------------------|------------------------------|
----------------------------------|------------------------------|
----------------------------------|------------------------------|
--0--0--0--0--0--0--0----0--0--0--|--0--0--0--0----0--0--0--3----|


  |--3--|  |--3--|       |--3--|     |--3--|       |--3--|        
  E  E  E  E  E  E  Q    E  E  E     E  E  E  Q    E  E  E  Q     
----------------------------------|------------------------------|
----------------------------------|------------------------------|
--1--1--1--1--1--1--1----0--0--0--|--0--0--0--0----0--0--0--0----|
----------------------------------|------------------------------|


  |--3--|  |--3--|       |--3--|     |--3--|       |--3--|        
  E  E  E  E  E  E  Q    E  E  E     E  E  E  Q    E  E  E  Q     
----------------------------------|------------------------------|
----------------------------------|------------------------------|
--1--1--1--1--1--1--1----0--0--0--|--0--0--0--0----0--0--0--0----|
----------------------------------|------------------------------|


  W                   W                   W                   W                 
-------------------|-------------------|-------------------|-------------------|
-------------------|-------------------|-------------------|-------------------|
-------------------|-------------------|--7----------------|--L----------------|
--0----------------|--0----------------|-------------------|-------------------|


  W                   W                   H        Q    Q     
-------------------|-------------------|----------------7----|
-------------------|-------------------|-----------7---------|
--7----------------|--7----------------|--5------------------|
-------------------|-------------------|---------------------|


  H        H           W                   H        H         
--------------------|-------------------|--------------------|
--------------------|-------------------|--------------------|
--5--------5--------|--3----------------|--3--------3--------|
--------------------|-------------------|--------------------|


  E  E  E   Q    Q    S S    E  E  E   Q    Q    S S    W                 
--------------------------|--------------------------|-------------------|
--------2h--3----2----5-3-|--------2h--3----2----5-3-|-------------------|
-----2--------------------|-----2--------------------|--7----------------|
--0-----------------------|--0-----------------------|-------------------|


  W                   H        Q    Q       H        H         
-------------------|----------------7----|--------------------|
-------------------|-----------7---------|--------------------|
--7----------------|--5------------------|--5--------5--------|
-------------------|---------------------|--------------------|


  W                   H        H           E  E  E   Q    Q    S S  
-------------------|--------------------|--------------------------|
-------------------|--------------------|--------2h--3----2----5-3-|
--3----------------|--3--------3--------|-----2--------------------|
-------------------|--------------------|--0-----------------------|


  E  E  E   Q    Q    S S    W                   W                 
--------------------------|-------------------|-------------------|
--------2h--3----2----5-3-|-------------------|-------------------|
-----2--------------------|--7----------------|--7----------------|
--0-----------------------|-------------------|-------------------|


  H        Q    Q       H        H           W                 
----------------7----|--------------------|-------------------|
-----------7---------|--------------------|-------------------|
--5------------------|--5--------5--------|--3----------------|
---------------------|--------------------|-------------------|


  H        H           E  E  E   Q    Q    S S    E  E  E   Q    Q    S S  
--------------------|--------------------------|--------------------------|
--------------------|--------2h--3----2----5-3-|--------2h--3----2----5-3-|
--3--------3--------|-----2--------------------|-----2--------------------|
--------------------|--0-----------------------|--0-----------------------|


  E  E  E   Q    Q    S S    E  E  E   Q    Q    S S    E  E  H.            
--------------------------|--------------------------|---------------------|
--------2h--3----2----5-3-|--------2h--3----2----5-3-|---------------------|
-----2--------------------|-----2--------------------|---------------------|
--0-----------------------|--0-----------------------|--3------------------|


  W                   W                   W                 
-------------------|-------------------|-------------------|
-------------------|-------------------|-------------------|
-------------------|-------------------|-------------------|
-------------------|-------------------|-------------------|


  E  E  H.              W                   W                 
---------------------|-------------------|-------------------|
---------------------|-------------------|-------------------|
---------------------|-------------------|-------------------|
--3--3---------------|-------------------|-------------------|


  S S S S Q    S S S S Q       E  E  H.              W                 
----------------------------|---------------------|-------------------|
----------------------------|---------------------|-------------------|
----------------------------|---------------------|-------------------|
--6-6-6-6-6----5-5-5-5-5----|--3------------------|-------------------|


  E  E  H.              W                   E  E  H.            
---------------------|-------------------|---------------------|
---------------------|-------------------|---------------------|
---------------------|-------------------|---------------------|
--3--3---------------|-------------------|--3--3---------------|


  W                   E  E  H.              S S S S Q    S S S S Q     
-------------------|---------------------|----------------------------|
-------------------|---------------------|----------------------------|
-------------------|---------------------|----------------------------|
-------------------|--3--3---------------|--6-6-6-6-6----5-5-5-5-5----|


  Q    E  S S E  E  S S E     E  S S E  E  S S E  S S E   
---------------------------|-----------------------------|
---------------------------|-----------------------------|
---------------------------|-----------------------------|
--3----3--3-3-3--3--3-3-3--|--3--3-3-3--3--3-3-3--3-3-3--|


  E   E  E  S S E  E  S S E     E  S S E  E  S S E  S S E   
-----------------------------|-----------------------------|
-----------------------------|-----------------------------|
--5h--6----------------------|-----------------------------|
---------3--3-3-3--3--3-3-3--|--3--3-3-3--3--3-3-3--3-3-3--|


  E   E  E  S S E  E  S S E     E  S S E  E  S S E  S S E   
-----------------------------|-----------------------------|
-----------------------------|-----------------------------|
-----------------------------|-----------------------------|
--0h--3--3--3-3-3--3--3-3-3--|--3--3-3-3--3--3-3-3--3-3-3--|


  E   E  E  S S E  E  S S E     S S S S Q    S S S S Q     
-----------------------------|----------------------------|
-----------------------------|----------------------------|
--5h--6----------------------|----------------------------|
---------3--3-3-3--3--3-3-3--|--6-6-6-6-6----5-5-5-5-5----|


  Q    E  S S E  E  S S E     E  S S E  E  S S E  S S E   
---------------------------|-----------------------------|
---------------------------|-----------------------------|
---------------------------|-----------------------------|
--3----3--3-3-3--3--3-3-3--|--3--3-3-3--3--3-3-3--3-3-3--|


  E   E  E  S S E  E  S S E     E  S S E  E  S S E  S S E   
-----------------------------|-----------------------------|
-----------------------------|-----------------------------|
--5h--6----------------------|-----------------------------|
---------3--3-3-3--3--3-3-3--|--3--3-3-3--3--3-3-3--3-3-3--|


  E   E  E  S S E  E  S S E     E  S S E  E  S S E  S S E   
-----------------------------|-----------------------------|
-----------------------------|-----------------------------|
-----------------------------|-----------------------------|
--0h--3--3--3-3-3--3--3-3-3--|--3--3-3-3--3--3-3-3--3-3-3--|


  E   E  E  S S E  E  S S E     S S S S Q    S S S S Q     
-----------------------------|----------------------------|
-----------------------------|----------------------------|
--5h--6----------------------|----------------------------|
---------3--3-3-3--3--3-3-3--|--6-6-6-6-6----5-5-5-5-5----|


  H        E  E  E  E     H        E  E  Q       H        E  E  E  E   
-----------------------|----------------------|-----------------------|
-----------------------|----------------------|-----------------------|
-----------------------|----------------------|--------------------3--|
--3--------3--2--3--5--|--L--------5--3--5----|--3--------3--2--3-----|


  H        E  E  Q       H        E  E  E  E     H        E  E  Q     
----------------------|-----------------------|----------------------|
----------------------|-----------------------|----------------------|
--L-------------------|-----------------------|----------------------|
-----------6--5--6----|--3--------3--2--3--5--|--L--------5--3--5----|


  H        E  E  E  E     W                   H        E  E  E  E   
-----------------------|-------------------|-----------------------|
-----------------------|-------------------|-----------------------|
-----------------------|-------------------|-----------------------|
--1--------1--3--5--3--|--L----------------|--3--------3--2--3--5--|


  H        E  E  Q       H        E  E  E  E     H        E  E  Q     
----------------------|-----------------------|----------------------|
----------------------|-----------------------|----------------------|
----------------------|--------------------3--|--L-------------------|
--L--------5--3--5----|--3--------3--2--3-----|-----------6--5--6----|


  H        E  E  E  E     H        E  E  Q       H        E  E  E  E   
-----------------------|----------------------|-----------------------|
-----------------------|----------------------|-----------------------|
-----------------------|----------------------|-----------------------|
--3--------3--2--3--5--|--L--------5--3--5----|--1--------1--3--5--3--|


  W                   H        E  E  E  E     H        E  E  Q     
-------------------|-----------------------|----------------------|
-------------------|-----------------------|----------------------|
-------------------|-----------------------|----------------------|
--L----------------|--3--------3--2--3--5--|--L--------5--3--5----|


  H        E  E  E  E     H        E  E  Q       H        E  E  E  E   
-----------------------|----------------------|-----------------------|
-----------------------|----------------------|-----------------------|
--------------------3--|--L-------------------|-----------------------|
--3--------3--2--3-----|-----------6--5--6----|--3--------3--2--3--5--|


  H        E  E  Q       H        E  E  E  E     W                 
----------------------|-----------------------|-------------------|
----------------------|-----------------------|-------------------|
----------------------|-----------------------|-------------------|
--L--------5--3--5----|--1--------1--3--5--3--|--L----------------|


  H        E  E  E  E     H        E  E  Q       H        E  E  E  E   
-----------------------|----------------------|-----------------------|
-----------------------|----------------------|-----------------------|
-----------------------|----------------------|--------------------3--|
--3--------3--2--3--5--|--L--------5--3--5----|--3--------3--2--3-----|


  H        E  E  Q       H        E  E  E  E     H        E  E  Q     
----------------------|-----------------------|----------------------|
----------------------|-----------------------|----------------------|
--L-------------------|-----------------------|----------------------|
-----------6--5--6----|--3--------3--2--3--5--|--L--------5--3--5----|


  H        E  E  E  E     W                   H        E  S S E  E   
-----------------------|-------------------|------------------------|
-----------------------|-------------------|------------------------|
-----------------------|-------------------|------------------------|
--1--------1--3--5--3--|--L----------------|--3--------3--3-3-3--5--|


  E  Q    Q    Q.        H        E  S S E  E     E  Q    Q    Q.      
----------------------|------------------------|----------------------|
----------------------|------------------------|----------------------|
----------------------|------------------------|----------------------|
--L--3----2----3------|--3--------3--3-3-3--5--|--L--3----2----3------|


  H        E  S S E  E     E  Q    Q    Q.        H        E  S S E  E   
------------------------|----------------------|------------------------|
------------------------|----------------------|------------------------|
------------------------|----------------------|------------------------|
--2--------2--2-2-2--5--|--L--3----2----3------|--2--------2--2-2-2--5--|


  E  Q    Q    Q.        H        E  S S E  E     E  Q    Q    Q.      
----------------------|------------------------|----------------------|
----------------------|------------------------|----------------------|
----------------------|------------------------|----------------------|
--L--3----2----3------|--3--------3--3-3-3--5--|--L--3----2----3------|


  H        E  S S E  E     E  Q    Q    Q.        H        E  S S E  E   
------------------------|----------------------|------------------------|
------------------------|----------------------|------------------------|
------------------------|----------------------|------------------------|
--3--------3--3-3-3--5--|--L--3----2----3------|--2--------2--2-2-2--5--|


  E  Q    Q    Q.        H        E  S S E  E     E  Q    Q    Q.      
----------------------|------------------------|----------------------|
----------------------|------------------------|----------------------|
----------------------|------------------------|----------------------|
--L--3----2----3------|--2--------2--2-2-2--5--|--L--3----2----3------|


  Q    E  S S E  E  E  E     E  E  E  E  E  E  S S S  S  
--------------------------|-----------------------------|
--------------------------|-----------------------------|
-----------------------6--|-----5-----3------------3h-5-|
--3----3--3-3-3--3--3-----|--3-----3-----3--3--3-3------|


  Q    E  S S E  E  E  E     E  E  E  E  E  E  S S S  S  
--------------------------|-----------------------------|
--------------------------|-----------------------------|
-----------------------6--|-----5-----3------------3h-5-|
--3----3--3-3-3--3--3-----|--3-----3-----3--3--3-3------|


  Q    E  S S E  E  E  E     E  E  E  E  E  E  S S S  S  
--------------------------|-----------------------------|
--------------------------|-----------------------------|
-----------------------5--|-----4-----2------------2h-4-|
--2----2--2-2-2--2--2-----|--2-----2-----2--2--2-2------|


  Q    E  S S E  E  E  E     E  E  E  E  E  E  S S S  S  
--------------------------|-----------------------------|
--------------------------|-----------------------------|
-----------------------5--|-----4-----2------------2h-4-|
--2----2--2-2-2--2--2-----|--2-----2-----2--2--2-2------|


  Q    E  S S E  E  E  E     E  E  E  E  E  E  S S S  S  
--------------------------|-----------------------------|
--------------------------|-----------------------------|
-----------------------6--|-----5-----3------------3h-5-|
--3----3--3-3-3--3--3-----|--3-----3-----3--3--3-3------|


  Q    E  S S E  E  E  E     E  E  E  E  E  E  S S S  S  
--------------------------|-----------------------------|
--------------------------|-----------------------------|
-----------------------6--|-----5-----3------------3h-5-|
--3----3--3-3-3--3--3-----|--3-----3-----3--3--3-3------|


  Q    E  S S E  E  E  E     E  E  E  E  E  E  S S S  S  
--------------------------|-----------------------------|
--------------------------|-----------------------------|
-----------------------5--|-----4-----2------------2h-4-|
--2----2--2-2-2--2--2-----|--2-----2-----2--2--2-2------|


  Q    E  S S E  E  E  E     E  E  E  E  E  E  S S S  S  
--------------------------|-----------------------------|
--------------------------|-----------------------------|
-----------------------5--|-----4-----2------------2h-4-|
--2----2--2-2-2--2--2-----|--2-----2-----2--2--2-2------|


  H        E  S S E  E     E  Q    Q    Q.        H        E  S S E  E   
------------------------|----------------------|------------------------|
------------------------|----------------------|------------------------|
------------------------|----------------------|------------------------|
--3--------3--3-3-3--5--|--L--3----2----3------|--3--------3--3-3-3--5--|


  E  Q    Q    Q.        H        E  S S E  E     E  Q    Q    Q.      
----------------------|------------------------|----------------------|
----------------------|------------------------|----------------------|
----------------------|------------------------|----------------------|
--L--3----2----3------|--2--------2--2-2-2--5--|--L--3----2----3------|


  H        E  S S E  E     E  Q    Q    Q.        H        E  S S E  E   
------------------------|----------------------|------------------------|
------------------------|----------------------|------------------------|
------------------------|----------------------|------------------------|
--2--------2--2-2-2--5--|--L--3----2----3------|--3--------3--3-3-3--5--|


  E  Q    Q    Q.        H        E  S S E  E     E  Q    Q    Q.      
----------------------|------------------------|----------------------|
----------------------|------------------------|----------------------|
----------------------|------------------------|----------------------|
--L--3----2----3------|--3--------3--3-3-3--5--|--L--3----2----3------|


  H        E  S S E  E     E  Q    Q    Q.        H        E  S S E  E   
------------------------|----------------------|------------------------|
------------------------|----------------------|------------------------|
------------------------|----------------------|------------------------|
--2--------2--2-2-2--5--|--L--3----2----3------|--2--------2--2-2-2--5--|


  E  Q    Q    Q.        Q    E  S S E  E  E  E     E  E  E  E  E  E  S S S  S  
----------------------|--------------------------|-----------------------------|
----------------------|--------------------------|-----------------------------|
----------------------|-----------------------6--|-----5-----3------------3h-5-|
--L--3----2----3------|--3----3--3-3-3--3--3-----|--3-----3-----3--3--3-3------|


  Q    E  S S E  E  E  E     E  E  E  E  E  E  S S S  S  
--------------------------|-----------------------------|
--------------------------|-----------------------------|
-----------------------6--|-----5-----3------------3h-5-|
--3----3--3-3-3--3--3-----|--3-----3-----3--3--3-3------|


  Q    E  S S E  E  E  E     E  E  E  E  E  E  S S S  S  
--------------------------|-----------------------------|
--------------------------|-----------------------------|
-----------------------5--|-----4-----2------------2h-4-|
--2----2--2-2-2--2--2-----|--2-----2-----2--2--2-2------|


  Q    E  S S E  E  E  E     E  E  E  E  E  E  S S S  S  
--------------------------|-----------------------------|
--------------------------|-----------------------------|
-----------------------5--|-----4-----2------------2h-4-|
--2----2--2-2-2--2--2-----|--2-----2-----2--2--2-2------|


  Q    E  S S E  E  E  E     E  E  E  E  E  E  S S S  S  
--------------------------|-----------------------------|
--------------------------|-----------------------------|
-----------------------6--|-----5-----3------------3h-5-|
--3----3--3-3-3--3--3-----|--3-----3-----3--3--3-3------|


  Q    E  S S E  E  E  E     E  E  E  E  E  E  S S S  S  
--------------------------|-----------------------------|
--------------------------|-----------------------------|
-----------------------6--|-----5-----3------------3h-5-|
--3----3--3-3-3--3--3-----|--3-----3-----3--3--3-3------|


  Q    E  S S E  E  E  E     E  E  E  E  E  E  S S S  S  
--------------------------|-----------------------------|
--------------------------|-----------------------------|
-----------------------5--|-----4-----2------------2h-4-|
--2----2--2-2-2--2--2-----|--2-----2-----2--2--2-2------|


  Q    E  S S E  E  E  E     E  E  E  E  E  E  S S S  S    W                 
--------------------------|-----------------------------|-------------------|
--------------------------|-----------------------------|-------------------|
-----------------------5--|-----4-----2------------2h-4-|--5----------------|
--2----2--2-2-2--2--2-----|--2-----2-----2--2--2-2------|-------------------|


  W                   W                   W                   W                 
-------------------|-------------------|-------------------|-------------------|
-------------------|-------------------|-------------------|-------------------|
--L----------------|--4----------------|--L----------------|--5----------------|
-------------------|-------------------|-------------------|-------------------|


  W                   W                   W                   W                 
-------------------|-------------------|-------------------|-------------------|
-------------------|-------------------|-------------------|-------------------|
--L----------------|--4----------------|--L----------------|--5----------------|
-------------------|-------------------|-------------------|-------------------|


  Q.     Q    Q    E     W                   W                 
----------------------|-------------------|-------------------|
----------------------|-------------------|-------------------|
--5------L----5----L--|--4----------------|--4----------------|
----------------------|-------------------|-------------------|


  W                   Q.     Q    Q    E     W                 
-------------------|----------------------|-------------------|
-------------------|----------------------|-------------------|
--5----------------|--5------L----5----L--|--4----------------|
-------------------|----------------------|-------------------|


  W                     S S S S S S S S S S S S S S S S  
-------------------||-----------------------------------|
-------------------||*----------------------------------|
--4----------------||*--5-5-5-5-5-5-5-5-5-5-5-5-5-5-5-5-|
-------------------||-----------------------------------|


  S S S S S S S S S S S S S S S S    S S S S S S S S S S S S S S S S  
----------------------------------|----------------------------------|
----------------------------------|----------------------------------|
--5-5-5-5-5-5-5-5-5-5-5-5-5-5-5-5-|--4-4-4-4-4-4-4-4-4-4-4-4-4-4-4-4-|
----------------------------------|----------------------------------|


  S S S S S S S S S S S S S S S S  4x  Q    Q    H         
-----------------------------------||---------------------|
----------------------------------*||---------------------|
--4-4-4-4-4-4-4-4-4-4-4-4-4-4-4-4-*||--3----5----2--------|
-----------------------------------||---------------------|


                                                    |--3--|       |--3--|   
  Q    Q    H           Q    Q    Q    Q       Q    E  E  E  Q    E  E  E   
---------------------|----------------------|------------------------------|
---------------------|----------------------|------------------------------|
--3----5----2--------|--3----5----2----3----|------------------------------|
---------------------|----------------------|--0----0--0--1--0----0--0--0--|


  Q    Q    H           Q    Q    H           Q    Q    Q    Q     
---------------------|---------------------|----------------------|
---------------------|---------------------|----------------------|
--3----5----2--------|--3----5----2--------|--3----5----2----3----|
---------------------|---------------------|----------------------|


       |--3--|                                                                
  Q    E  E  E  H           W                   H.              H.            
-------------------------|-------------------|---------------|---------------|
-------------------------|-------------------|---------------|---------------|
-------------------------|-------------------|---------------|---------------|
--0----0--0--1--0--------|--L----------------|---------------|---------------|


  H.              H.              W                   E  H        E   
---------------|---------------|-------------------|-----------------|
---------------|---------------|-------------------|-----------------|
---------------|---------------|-------------------|-----------------|
---------------|---------------|-------------------|--0--------------|


  Q    E  Q.        H        E  E     H.              W                 
-----------------|-----------------|---------------|-------------------|
-----------------|-----------------|---------------|-------------------|
-----------------|-----------------|---------------|-------------------|
-------0---------|-----------0-----|---------------|-------------------|


  E  Q    E  Q    E  E  E  E  E  E     E  Q.     E  Q    E   
------------------------------------|-----------------------|
------------------------------------|-----------------------|
------------------------------5-----|-----------------------|
--0-------0-------0-----1-----------|--0---------0-------0--|


  Q    E  E  E  E  E  E     E  Q.     E  Q    E     Q    E  E  E  E  E  E   
-------------------------|-----------------------|-------------------------|
-------------------------|-----------------------|-------------------------|
-------------------------|-----------------------|-------------------5-----|
-------0-----1-----3-----|--0---------0-------0--|-------0-----1-----------|


  E  Q.     Q.     E     Q    W                Q     
----------------------|-----------------------------|
----------------------|-----------------------------|
----------------------|-------5----------------L----|
--0---------3------2--|--L--------------------------|


    E  E  E  E  E  E  E  E  E  E  E  E     E  E  E  E  E  E  E  E   
|---------------------------------------|--------------------------|
|*--------------------------------------|--------------------------|
|*--------------------------------5--5--|--------------------------|
|---0--0--0--0--0--0--0--0--1--1--------|--0--0--0--0--0--0--0--0--|


  E  E  E  E  E  E  E  E     E  E  E  E  E  E  E  E   
--------------------------|--------------------------|
--------------------------|--------------------------|
--------------------------|--------------------------|
--0--0--0--0--1--1--3--3--|--0--0--0--0--0--0--0--0--|


  E  E  E  E  E  E  E  E     E  E  E  E  E  E  E  E   
--------------------------|--------------------------|
--------------------------|--------------------------|
--------------------5--5--|--------------------------|
--0--0--0--0--1--1--------|--0--0--0--0--3--3--3--2--|


  E  E  W                Q         E  E  E  E  E  E  E  E   
-------------------------------||--------------------------|
------------------------------*||--------------------------|
--------5----------------L----*||--2--------2--------2-----|
--2--2-------------------------||-----0--0-----0--0-----0--|


  E  E  E  E  E  E  E  E     E  E  E  E  E  E  E  E     E  E  E  E  H         
--------------------------|--------------------------|-----------------------|
--------------------------|--------------------------|-----------------------|
--3--------3--------3-----|--0--------0--------0-----|--2--------2--L--------|
-----0--0-----0--0-----0--|-----0--0-----0--0-----0--|-----0--0--------------|


  Q    E  E  E  E  E  E     E  E  E  E  E  E  E   E   
-------------------------|---------------------------|
-------------------------|--7------------------------|
-------8--------8--------|-----------8--------7h--8--|
--6-------6--6-----6--6--|-----6--6-----6--6---------|


  E  E  E  E  E  E  E  E     E  E  E  E  E  E  E   E   
--------------------------|---------------------------|
--------------------------|--7------------------------|
--------8--------8--------|-----------8--------7h--8--|
--6--6-----6--6-----6--6--|-----6--6-----6--6---------|


  E  E  E  E  E  E  E  E     E  E  E  E  E  E  Q       E  E  E  E  E  E  E  E   
--------------------------|-------------------------|--------------------------|
--------------------------|-------------------------|--------------------------|
--------2--------2--------|--3--------3--------3----|--------0--------0--------|
--0--0-----0--0-----0--0--|-----0--0-----0--0-------|--0--0-----0--0-----0--0--|


  E  E  E  E  E  E  Q       Q    E  E  E  E  E  E     E  E  E  E  E  E  E   E   
-------------------------|-------------------------|---------------------------|
-------------------------|-------------------------|--7------------------------|
--2--------2--------2----|-------8--------8--------|-----------8--------7h--8--|
-----0--0-----0--0-------|--6-------6--6-----6--6--|-----6--6-----6--6---------|


  E  E  E  E  E  E  E  E     E  E  E  E  E  E  E   E   
--------------------------|---------------------------|
--------------------------|--7------------------------|
--------8--------8--------|-----------8--------7h--8--|
--6--6-----6--6-----6--6--|-----6--6-----6--6---------|


    E  S S S S E  S S S S E  S S    S S E  S S S S E  S S E  S S  
|--------------------------------|-------------------------------|
|*-------------------------------|-------------------------------|
|*--5--5-5-5-5-5--5-5-5-5-6--6-6-|--6-6-3--3-3-3-3-5--5-5-5--5-5-|
|--------------------------------|-------------------------------|


  E  S S S S E  S S S S E  S S    S S E  S S S S E  S S E  S S  
-------------------------------|-------------------------------|
-------------------------------|-------------------------------|
--5--5-5-5-5-5--5-5-5-5-6--6-6-|--6-6-3--3-3-3-3-5--5-5-5--5-5-|
-------------------------------|-------------------------------|


  W                   W                 4x  W                 
-------------------|--------------------||-------------------|
-------------------|-------------------*||-------------------|
-------------------|-------------------*||--5----------------|
-------------------|--------------------||-------------------|


  W                   W                   W                   W                 
-------------------|-------------------|-------------------|-------------------|
-------------------|-------------------|-------------------|-------------------|
--L----------------|--6----------------|--L----------------|--5----------------|
-------------------|-------------------|-------------------|-------------------|


  W                   W                   W                   W                 
-------------------|-------------------|-------------------|-------------------|
-------------------|-------------------|-------------------|-------------------|
--L----------------|--6----------------|--L----------------|--5----------------|
-------------------|-------------------|-------------------|-------------------|


  W                   W                   W                   W                 
-------------------|-------------------|-------------------|-------------------|
-------------------|-------------------|-------------------|-------------------|
--L----------------|--6----------------|--L----------------|--5----------------|
-------------------|-------------------|-------------------|-------------------|


  W                   W                   W                   W                 
-------------------|-------------------|-------------------|-------------------|
-------------------|-------------------|-------------------|-------------------|
--L----------------|--6----------------|--L----------------|--3----------------|
-------------------|-------------------|-------------------|-------------------|


  W                   W                   W                   W                 
-------------------|-------------------|-------------------|-------------------|
-------------------|-------------------|-------------------|-------------------|
--L----------------|--2----------------|--L----------------|--3----------------|
-------------------|-------------------|-------------------|-------------------|


  W                   W                   W                   W                 
-------------------|-------------------|-------------------|-------------------|
-------------------|-------------------|-------------------|-------------------|
--L----------------|--2----------------|--L----------------|-------------------|
-------------------|-------------------|-------------------|--0----------------|


  W                   W                   W                   W                 
-------------------|-------------------|-------------------|-------------------|
-------------------|-------------------|-------------------|-------------------|
-------------------|--8----------------|--L----------------|-------------------|
--L----------------|-------------------|-------------------|--0----------------|


  W                   W                   W                   W                 
-------------------|-------------------|-------------------|-------------------|
-------------------|-------------------|-------------------|-------------------|
-------------------|-------------------|-------------------|-------------------|
--L----------------|--1----------------|--L----------------|--0----------------|


  H.           E  E     W                   W                 
---------------------|-------------------|-------------------|
---------------------|-------------------|-------------------|
---------------------|-------------------|-------------------|
--L------------0--0--|--1----------------|--L----------------|


  W                   H.           E  E     W                 
-------------------|---------------------|-------------------|
-------------------|---------------------|-------------------|
-------------------|---------------------|-------------------|
--0----------------|--L------------0--0--|--1----------------|


  W                   E  Q    E  Q    E  E     E  E  Q    E  E  E  E   
-------------------|------------------------|-------------------------|
-------------------|------------------------|-------------------------|
-------------------|------------------------|-------------------------|
--L----------------|--0-------0-------0-----|-----0-------0-----0-----|


  E  Q    E  Q    E  E     E  E  Q    E  E  E  E     E  Q    E  Q    E  E   
------------------------|-------------------------|------------------------|
------------------------|-------------------------|------------------------|
------------------------|-------------------------|------------------------|
--0-------0-------0-----|-----0-------0-----0-----|--0-------0-------0-----|


  E  E  Q    E  E  E  E     E  Q    E  Q    E  E     E  E  Q    E  E  E  E   
-------------------------|------------------------|-------------------------|
-------------------------|------------------------|-------------------------|
-------------------------|------------------------|-------------------------|
-----0-------0-----0-----|--0-------0-------0-----|-----0-------0-----0-----|


  E  Q    E  Q    E  E     E  E  Q    E  E  E  E     E  Q    E  Q    E  E   
------------------------|-------------------------|------------------------|
------------------------|-------------------------|------------------------|
------------------------|-------------------------|------------------------|
--0-------0-------0-----|-----0-------0-----0-----|--0-------0-------0-----|


  E  E  Q    E  E  E  E     E  Q    E  Q    E  E     E  E  Q    E  E  E  E   
-------------------------|------------------------|-------------------------|
-------------------------|------------------------|-------------------------|
-------------------------|------------------------|-------------------------|
-----0-------0-----0-----|--0-------0-------0-----|-----0-------0-----0-----|


  E  Q    E  Q    E  E     E  E  Q    E  E  E  E     E  Q    E  Q    E  E   
------------------------|-------------------------|------------------------|
------------------------|-------------------------|------------------------|
------------------------|-------------------------|------------------------|
--0-------0-------0-----|-----0-------0-----0-----|--0-------0-------0-----|


  E  E  Q    E  E  E  E     E  Q    E  Q    E  E     E  E  Q    E  E  E  E   
-------------------------|------------------------|-------------------------|
-------------------------|------------------------|-------------------------|
-------------------------|------------------------|-------------------------|
-----0-------0-----0-----|--0-------0-------0-----|-----0-------0-----0-----|


  E  Q    E  Q    E  E     E  E  Q    E  E  E  E     E  Q    E  Q    E  E   
------------------------|-------------------------|------------------------|
------------------------|-------------------------|------------------------|
------------------------|-------------------------|------------------------|
--0-------0-------0-----|-----0-------0-----0-----|--0-------0-------0-----|


  E  E  Q    E  E  E  E     E  Q    E  Q    E  E     E  E  Q    E  E  E  E   
-------------------------|------------------------|-------------------------|
-------------------------|------------------------|-------------------------|
-------------------------|------------------------|-------------------------|
-----0-------0-----0-----|--0-------0-------0-----|-----0-------0-----0-----|


  E  Q    E  Q    E  E     E  E  Q    E  E  E  E     E  Q    E  Q    E  E   
------------------------|-------------------------|------------------------|
------------------------|-------------------------|------------------------|
------------------------|-------------------------|------------------------|
--0-------0-------0-----|-----0-------0-----0-----|--0-------0-------0-----|


  E  E  Q    E  E  E  E     E  Q    E  Q    E  E     E  E  Q    E  E  E  E   
-------------------------|------------------------|-------------------------|
-------------------------|------------------------|-------------------------|
-------------------------|------------------------|-------------------------|
-----0-------0-----0-----|--0-------0-------0-----|-----0-------0-----0-----|


    E  Q    E  Q    E  E     E  E  Q    E  E  E  E     E  Q    E  Q    E  E   
|-------------------------|-------------------------|------------------------|
|*------------------------|-------------------------|------------------------|
|*------------------------|-------------------------|------------------------|
|---1-------1-------1-----|-----1-------1-----1-----|--1-------1-------1-----|


  E  E  Q    E  E  E  E     E  Q    E  Q    E  E     E  E  Q    E  E  E  E   
-------------------------|------------------------|-------------------------|
-------------------------|------------------------|-------------------------|
-------------------------|------------------------|-------------------------|
-----1-------1-----1-----|--1-------1-------1-----|-----1-------1-----1-----|


  E  Q    E  Q    E  E     E  E  Q    E  E  E  E     E  Q    E  Q    E  E   
------------------------|-------------------------|------------------------|
------------------------|-------------------------|------------------------|
------------------------|-------------------------|------------------------|
--1-------1-------1-----|-----1-------1-----1-----|--0-------0-------0-----|


  E  E  Q    E  E  E  E     E  Q    E  Q    E  E     E  E  Q    E  E  E  E   
-------------------------|------------------------|-------------------------|
-------------------------|------------------------|-------------------------|
-------------------------|------------------------|-------------------------|
-----0-------0-----0-----|--0-------0-------0-----|-----0-------0-----0-----|


  E  Q    E  Q    E  E     E  Q    E  Q    E  E       E  Q    E  Q    E  E   
------------------------|-------------------------||------------------------|
------------------------|------------------------*||------------------------|
------------------------|------------------------*||------------------------|
--4-------3-------3-----|--4-------3-------3------||--1-------1-------1-----|


  E  E  Q    E  E  E  E     E  Q    E  Q    E  E     E  E  Q    E  E  E  E   
-------------------------|------------------------|-------------------------|
-------------------------|------------------------|-------------------------|
-------------------------|------------------------|-------------------------|
-----1-------1-----1-----|--1-------1-------1-----|-----1-------1-----1-----|


  E  Q    E  Q    E  E     E  E  Q    E  E  E  E     E  Q    E  Q    E  E   
------------------------|-------------------------|------------------------|
------------------------|-------------------------|------------------------|
------------------------|-------------------------|------------------------|
--1-------1-------1-----|-----1-------1-----1-----|--1-------1-------1-----|


  E  E  Q    E  E  E  E     E  Q    E  Q    E  E     E  E  Q    E  E  E  E   
-------------------------|------------------------|-------------------------|
-------------------------|------------------------|-------------------------|
-------------------------|------------------------|-------------------------|
-----1-------1-----1-----|--0-------0-------0-----|-----0-------0-----0-----|


  E  Q    E  Q    E  E     E  E  Q    E  E  E  E     E  Q    E  Q    E  E   
------------------------|-------------------------|------------------------|
------------------------|-------------------------|------------------------|
------------------------|-------------------------|------------------------|
--0-------0-------0-----|-----0-------0-----0-----|--4-------3-------3-----|


  E  Q    E  Q    E  E       Q    E  E  E  E  E  E     E  E  E  E  E  E  E  E   
------------------------||--------------------------|--------------------------|
------------------------||*-------------------------|--------------------------|
------------------------||*-------------------------|--------------------------|
--4-------3-------3-----||---1----1--0--0--0--0--0--|--0--0--0--1--0--0--0--1--|


  Q    E  E  E  E  E  E     E  E  E  Q    E  E  E   5x  Q    E  E  E  E  E  E   
-------------------------|--------------------------||-------------------------|
-------------------------|-------------------------*||-------------------------|
-------------------------|-------------------------*||-------------------------|
--1----1--0--0--0--0--0--|--1--0--1--0----0--0--0---||--1----1--0--0--0--0--0--|


  E  E  E  E  E  E  E  E     Q    E  E  E  E  E  E     E  E  E  Q    E  E  E   
--------------------------|-------------------------|-------------------------|
--------------------------|-------------------------|-------------------------|
--------------------------|-------------------------|-------------------------|
--0--0--0--1--0--0--0--1--|--1----1--0--0--0--0--0--|--1--0--1--0----0--0--0--|


  E  E  E  E  H             E  S S E  E  S S S S S S S S  
-----------------------||--------------------------------|
-----------------------||*-------------------------------|
-----------------------||*-------------------------------|
--1--1--1--0--L--------||---0--0-0-0--0--0-0-0-0-0-0-0-0-|


  E  E  E  E  Q    S S E     E  S S E  E  S S E  S S E   
--------------------------|-----------------------------|
--------------------------|-----------------------------|
-----------------------1--|--L--1-1-1--1--1-1-1--1-1-1--|
--1--0--1--0--L----0-0----|-----------------------------|


  E  E  E  E  H         3x  E  S S E  E  S S S S S S S S  
------------------------||-------------------------------|
-----------------------*||-------------------------------|
-----------------------*||-------------------------------|
--1--1--1--0--L---------||--0--0-0-0--0--0-0-0-0-0-0-0-0-|


  E  E  E  E  Q    S S E     E  S S E  E  S S E  S S E   
--------------------------|-----------------------------|
--------------------------|-----------------------------|
-----------------------1--|--L--1-1-1--1--1-1-1--1-1-1--|
--1--0--1--0--L----0-0----|-----------------------------|


  E  S S E  E  S S E  E  S S    E  E  S S E  E  S S E  E   
-----------------------------|----------------------------|
-----------------------------|----------------------------|
--2---------0---------2------|-----0---------2--0-0-0--2--|
-----0-0-0-----0-0-0-----0-0-|--0-----0-0-0---------------|


  E  S S E  E  S S E  E  S S    E  E  S S E  E  E  E  E   
-----------------------------|---------------------------|
-----------------------------|---------------------------|
--3---------0---------3------|-----0---------3-----3-----|
-----0-0-0-----0-0-0-----0-0-|--0-----0-0-0-----0-----0--|


  E  S S E  E  S S E  E  S S    E  E  S S E  E  S S E  E   
-----------------------------|----------------------------|
-----------------------------|----------------------------|
--2---------0---------2------|-----0---------2--0-0-0--2--|
-----0-0-0-----0-0-0-----0-0-|--0-----0-0-0---------------|


  E  S S E  E  S S E  E  S S    E  E  S S E  E  E  E  E   
-----------------------------|---------------------------|
-----------------------------|---------------------------|
--3---------0---------3------|-----0---------3-----3-----|
-----0-0-0-----0-0-0-----0-0-|--0-----0-0-0-----0-----0--|


  E  S S E  E  S S E  E  S S    E  E  S S E  E  S S E  E   
-----------------------------|----------------------------|
-----------------------------|----------------------------|
--2---------0---------2------|-----0---------2--0-0-0--2--|
-----0-0-0-----0-0-0-----0-0-|--0-----0-0-0---------------|


  E  S S E  E  S S E  E  S S    E  E  S S E  E  E  E  E   
-----------------------------|---------------------------|
-----------------------------|---------------------------|
--3---------0---------3------|-----0---------3-----3-----|
-----0-0-0-----0-0-0-----0-0-|--0-----0-0-0-----0-----0--|


  E  S S E  E  S S E  E  S S    E  E  S S E  E  S S E  E   
-----------------------------|----------------------------|
-----------------------------|----------------------------|
--2---------0---------2------|-----0---------2--0-0-0--2--|
-----0-0-0-----0-0-0-----0-0-|--0-----0-0-0---------------|


  E  S S E  E  S S E  E  S S    E  E  S S E  E  E  E  E   
-----------------------------|---------------------------|
-----------------------------|---------------------------|
--3---------0---------3------|-----0---------3-----3-----|
-----0-0-0-----0-0-0-----0-0-|--0-----0-0-0-----0-----0--|


  E  S S E  E  S S E  E  S S    E  E  S S E  E  S S E  E   
-----------------------------|----------------------------|
-----------------------------|----------------------------|
--2---------0---------2------|-----0---------2--0-0-0--2--|
-----0-0-0-----0-0-0-----0-0-|--0-----0-0-0---------------|


  E  S S E  E  S S E  E  S S    E  E  S S E  E  E  E  E   
-----------------------------|---------------------------|
-----------------------------|---------------------------|
--3---------0---------3------|-----0---------3-----3-----|
-----0-0-0-----0-0-0-----0-0-|--0-----0-0-0-----0-----0--|


  E  S S E  E  S S E  E  S S    E  E  S S E  E  S S E  E   
-----------------------------|----------------------------|
-----------------------------|----------------------------|
--2---------0---------2------|-----0---------2--0-0-0--2--|
-----0-0-0-----0-0-0-----0-0-|--0-----0-0-0---------------|


  E  S S E  E  S S E  E  S S    E  E  S S E  E  E  E  E   
-----------------------------|---------------------------|
-----------------------------|---------------------------|
--3---------0---------3------|-----0---------3-----3-----|
-----0-0-0-----0-0-0-----0-0-|--0-----0-0-0-----0-----0--|


  E  S S E  E  S S E  E  S S    E  E  S S E  E  S S E  E   
-----------------------------|----------------------------|
-----------------------------|----------------------------|
--2---------0---------2------|-----0---------2--0-0-0--2--|
-----0-0-0-----0-0-0-----0-0-|--0-----0-0-0---------------|


  E  S S E  E  S S E  E  S S    E  E  S S E  E  E  E  E   
-----------------------------|---------------------------|
-----------------------------|---------------------------|
--3---------0---------3------|-----0---------3-----3-----|
-----0-0-0-----0-0-0-----0-0-|--0-----0-0-0-----0-----0--|


  E  S S E  E  S S E  E  S S    E  E  S S E  E  S S E  E   
-----------------------------|----------------------------|
-----------------------------|----------------------------|
--2---------0---------2------|-----0---------2--0-0-0--2--|
-----0-0-0-----0-0-0-----0-0-|--0-----0-0-0---------------|


  E  S S E  E  S S E  E  S S    E  E  S S E  E  E  E  E     W                  
-----------------------------|---------------------------|-------------------||
-----------------------------|---------------------------|-------------------||
--3---------0---------3------|-----0---------3-----3-----|-------------------||
-----0-0-0-----0-0-0-----0-0-|--0-----0-0-0-----0-----0--|-------------------||




Duration Legend
---------------
W - whole
H - half
Q - quarter
E - 8th
S - 16th
T - 32nd
X - 64th
. - note dotted
|-n-|  - n-tuplets


Tablature Legend
----------------
L - tied note
x - dead note
g - grace note
(n) - ghost note
> - accentuded note
NH - natural harmonic
AH - artificial harmonic
TH - tapped harmonic
SH - semi harmonic
PH - pitch harmonic
h - hammer on
p - pull off
b - bend
br - bendRelease
pb - preBend
pbr - preBendRelease
brb - bendReleaseBend
\n/ - tremolo bar dip
\n - tremolo bar dive
-/n - tremolo bar Release up
/n\ - tremolo bar inverted dip
/n - tremolo bar return
-\n - tremolo bar Release down
S - shift slide
s - legato slide
/ -  slide into from below or out of upwards
\ -  slide into from above or out of downwards
~ - vibrato
W - wide vibrato
tr - trill
TP - tremolo picking
T - tapping
S - slap
P - pop
< - fade in
^ - brush up
v - brush down

            
            
Suggest correction
Creating personal tab
Creating personal tab
You can edit any tab online and save it as your Personal.

You can edit, replace or remove any tab part or add personal notes – all changes will be seen only by you.

Personal tabs can be accessed anytime from any device, even offline.
Learn more »
Give kudos to tab author, rate the tab!
1 2 3 4 5
comments
print report bad tab
guest
You may want to rate the tab now too:
select rating
Wanna post a correction for this tab? Suggest correction