Oops, an error
Loading. Please wait.

Dantes Inferno tab

version 2
version 2

Whole song

Interactive

569 views 1 this week
no commentswrite comment
1 2 3 4 5
3 more votes to show rating
add to favorites
×
Save as Personal and add changes to this tab that will be seen only by you. Learn more ›
×
You can save this tab as Personal to edit and correct it or add notes. All changes will be seen only by you. Learn more »
launch autoscroll
font size
0
reset
how to read this tab
guitar tuner
edit
Autoscroll
slow
fast
+/-
esc
set tempo
stop
#----------------------------------PLEASE NOTE---------------------------------#
#This file is the author's own work and represents their interpretation of the #
#song. You may only use this file for private study, scholarship, or research. #
#------------------------------------------------------------------------------#

DANTE'S INFERNO
As recorded by Iced Earth
(From the 1995 Album BURNT OFFERINGS)

Transcribed by Russ Elton (webmaster@abysslord.com)
        

Words and Music by Jon Schaffer
Arranged by Russ Elton (webmaster@abysslord.com)

Gtr I (Eb Ab Db Gb Bb Eb) - 'Clean guitar'
Gtr II (Eb Ab Db Gb Bb Eb) - '12 string acoustic'
Gtr III (Eb Ab Db Gb Bb Eb) - 'Distortion'
Gtr IV (Eb Ab Db Gb Bb Eb) - 'Distortion'
Gtr V (Eb Ab Db Gb Bb Eb) - 'Distortion'
Gtr VI (Eb Ab Db Gb Bb Eb) - 'Bells'

 Intro
  Q=136
  Em
 4/4
  Gtr I
  E E E E +E  E E E   +E  E E E +E  E E E
|-------7-(7)-----7-|-(7)-----7-(7)-------|
|-------------0-----|-----0---------0-----|
|---------------0---|-------0---------0---|
|-----5-------------|---------------------|
|---7---------------|-------------------7-|
|-0-----------------|---------------------|


  Eb+
  E E E E +E  E E E   +E  E E E +E  E E E
|-------7-(7)-----7-|-(7)-----7-(7)--------|
|-------------0-----|-----0---------0------|
|-----0---------0---|-------0---------0----|
|---5---------------|----------------------|
|-6-----------------|-------------------6--|
|-------------------|----------------------|


    Em
    E E E E +E  E E E   +E  E E E +E  E E E
||--------7-(7)-----7-|-(7)-----7-(7)-------|
||o-------------0-----|-----0---------0-----|
||------0---------0---|-------0---------0---|
||----5---------------|---------------------|
||o-7-----------------|-------------------7-|
||--------------------|---------------------|


  Eb+
  E E E E +E  E E E   +E  E E E +E  E E E   3x
|-------7-(7)-----7-|-(7)-----7-(7)---------||
|-------------0-----|-----0---------0------o||
|-----0---------0---|-------0---------0-----||
|---5---------------|-----------------------||
|-6-----------------|-------------------6--o||
|-------------------|-----------------------||


  Em
  Gtr V
   W                    H         H
|-12-----------------|-14--------15--------|
|--------------------|---------------------|
|--------------------|---------------------|
|--------------------|---------------------|
|--------------------|---------------------|
|--------------------|---------------------|
|
| Gtr I
|  E E E E +E  E E E   +E  E E E +E  E E E
|--------7-(7)-----7-|-(7)-----7-(7)-------|
|--------------0-----|-----0---------0-----|
|------0---------0---|-------0---------0---|
|----5---------------|---------------------|
|--7-----------------|-------------------7-|
|--------------------|---------------------|


  Eb+
   W                    W
|-11-----------------|---------------------|
|--------------------|-12------------------|
|--------------------|---------------------|
|--------------------|---------------------|
|--------------------|---------------------|
|--------------------|---------------------|
|
|  E E E E +E  E E E   +E  E E E +E  E E E
|--------7-(7)-----7-|-(7)-----7-(7)-------|
|--------------0-----|-----0---------0-----|
|------0---------0---|-------0---------0---|
|----5---------------|---------------------|
|--6-----------------|-------------------6-|
|--------------------|---------------------|


  Em
   W                    H         H
|-12-----------------|-14--------15--------|
|--------------------|---------------------|
|--------------------|---------------------|
|--------------------|---------------------|
|--------------------|---------------------|
|--------------------|---------------------|
|
|  E E E E +E  E E E   +E  E E E +E  E E E
|--------7-(7)-----7-|-(7)-----7-(7)-------|
|--------------0-----|-----0---------0-----|
|------0---------0---|-------0---------0---|
|----5---------------|---------------------|
|--7-----------------|-------------------7-|
|--------------------|---------------------|


  Eb+
   W                    H         +Q     Q
|-17-----------------|-19--------(19)\-------|
|--------------------|-----------------------|
|--------------------|-----------------------|
|--------------------|-----------------------|
|--------------------|-----------------------|
|--------------------|-----------------------|
|
|  E E E E +E  E E E   +E  E E E  +E   E E E
|--------7-(7)-----7-|-(7)-----7--(7)--------|
|--------------0-----|-----0-----------0-----|
|------0---------0---|-------0-----------0---|
|----5---------------|-----------------------|
|--6-----------------|---------------------6-|
|--------------------|-----------------------|


    Dmadd9
     W                    H         H
||---------------------|--------------------|
||o-15-----------------|-17--------18-------|
||---------------------|--------------------|
||---------------------|--------------------|
||o--------------------|--------------------|
||---------------------|--------------------|
|
|    E E E E +E  E E E   +E  E E E +E  E Q
||---------0-(0)-----0-|-(0)-----0-(0)------|
||o--------------6-----|-----6---------6----|
||-------7---------7---|-------7---------7--|
||-----7---------------|--------------------|
||o--5-----------------|--------------------|
||---------------------|--------------------|


  C7+9
   W                   W
|-------------------|--------------------|
|-17----------------|-13-----------------|
|-------------------|--------------------|
|-------------------|--------------------|
|-------------------|--------------------|
|-------------------|--------------------|
|
|  E E E E +E  Q  E    E E E E +E  Q.
|--------0-(0)------|--------0-(0)-------|
|--------------4----|--------------4-----|
|------5----------5-|------5-------------|
|----5--------------|----5---------------|
|--3----------------|--3-----------------|
|-------------------|--------------------|


  1.
  Dmadd9
   W                    H         H
|--------------------|--------------------|
|-15-----------------|-17--------18-------|
|--------------------|--------------------|
|--------------------|--------------------|
|--------------------|--------------------|
|--------------------|--------------------|
|
|  E E E E +E  E E E   +E  E E E +E  E Q
|--------0-(0)-----0-|-(0)-----0-(0)------|
|--------------6-----|-----6---------6----|
|------7---------7---|-------7---------7--|
|----7---------------|--------------------|
|--5-----------------|--------------------|
|--------------------|--------------------|


  C7+9
   W                   W
|-15----------------|--------------------||
|-------------------|-17----------------o||
|-------------------|--------------------||
|-------------------|--------------------||
|-------------------|-------------------o||
|-------------------|--------------------||
|
|  E E E E +E  Q  E    E E E E +E  Q.
|--------0-(0)------|--------0-(0)-------||
|--------------4----|--------------4----o||
|------5----------5-|------5-------------||
|----5--------------|----5---------------||
|--3----------------|--3----------------o||
|-------------------|--------------------||


  2.
  Dmadd9
   W                    H         H
|--------------------|--------------------|
|-15-----------------|-17--------18-------|
|--------------------|--------------------|
|--------------------|--------------------|
|--------------------|--------------------|
|--------------------|--------------------|
|
|  E E E E +E  E E E   +E  E E E +E  E Q
|--------0-(0)-----0-|-(0)-----0-(0)------|
|--------------6-----|-----6---------6----|
|------7---------7---|-------7---------7--|
|----7---------------|--------------------|
|--5-----------------|--------------------|
|--------------------|--------------------|


  C7+9
   W                   H        Q     Q
|-15----------------|-17-------19\-------|
|-------------------|--------------------|
|-------------------|--------------------|
|-------------------|--------------------|
|-------------------|--------------------|
|-------------------|--------------------|
|
|  E E E E +E  Q  E    E E E E +E  Q.
|--------0-(0)------|--------0-(0)-------|
|--------------4----|--------------4-----|
|------5----------5-|------5-------------|
|----5--------------|----5---------------|
|--3----------------|--3-----------------|
|-------------------|--------------------|


    Em
    Gtr IV
     W                    H         H
||--15-----------------|-17--------19--------|
||o--------------------|---------------------|
||---------------------|---------------------|
||---------------------|---------------------|
||o--------------------|---------------------|
||---------------------|---------------------|
|
|   Gtr III
|    W                    H         H
||--12-----------------|-14--------15--------|
||o--------------------|---------------------|
||---------------------|---------------------|
||---------------------|---------------------|
||o--------------------|---------------------|
||---------------------|---------------------|
|
|   Gtr I
|    E E E E +E  E E E   +E  E E E +E  E E E
||---------7-(7)-----7-|-(7)-----7-(7)-------|
||o--------------0-----|-----0---------0-----|
||-----------------0---|-------0---------0---|
||-------5-------------|---------------------|
||o----7---------------|-------------------7-|
||---0-----------------|---------------------|


  Eb+
   W                    W
|-14-----------------|----------------------|
|--------------------|-16-------------------|
|--------------------|----------------------|
|--------------------|----------------------|
|--------------------|----------------------|
|--------------------|----------------------|
|
|  W                    W
|-11-----------------|----------------------|
|--------------------|-12-------------------|
|--------------------|----------------------|
|--------------------|----------------------|
|--------------------|----------------------|
|--------------------|----------------------|
|
|  E E E E +E  E E E   +E  E E E +E  E E E
|--------7-(7)-----7-|-(7)-----7-(7)--------|
|--------------0-----|-----0---------0------|
|------0---------0---|-------0---------0----|
|----5---------------|----------------------|
|--6-----------------|-------------------6--|
|--------------------|----------------------|


  1.
  Em
   W                    H         H
|-15-----------------|-17--------19--------|
|--------------------|---------------------|
|--------------------|---------------------|
|--------------------|---------------------|
|--------------------|---------------------|
|--------------------|---------------------|
|
|  W                    H         H
|-12-----------------|-14--------15--------|
|--------------------|---------------------|
|--------------------|---------------------|
|--------------------|---------------------|
|--------------------|---------------------|
|--------------------|---------------------|
|
|  E E E E +E  E E E   +E  E E E +E  E E E
|--------7-(7)-----7-|-(7)-----7-(7)-------|
|--------------0-----|-----0---------0-----|
|------0---------0---|-------0---------0---|
|----5---------------|---------------------|
|--7-----------------|-------------------7-|
|--------------------|---------------------|


  Eb+
   W                    W
|-20-----------------|-17-------------------||
|--------------------|---------------------o||
|--------------------|----------------------||
|--------------------|----------------------||
|--------------------|---------------------o||
|--------------------|----------------------||
|
|  W                    W
|-17-----------------|-14-------------------||
|--------------------|---------------------o||
|--------------------|----------------------||
|--------------------|----------------------||
|--------------------|---------------------o||
|--------------------|----------------------||
|
|  E E E E +E  E E E   +E  E E E +E  E E E
|--------7-(7)-----7-|-(7)-----7-(7)--------||
|--------------0-----|-----0---------0-----o||
|------0---------0---|-------0---------0----||
|----5---------------|----------------------||
|--6-----------------|-------------------6-o||
|--------------------|----------------------||


  2.
  Em
   W                    H         H
|-15-----------------|-17--------19--------|
|--------------------|---------------------|
|--------------------|---------------------|
|--------------------|---------------------|
|--------------------|---------------------|
|--------------------|---------------------|
|
|  W                    H         H
|-12-----------------|-14--------15--------|
|--------------------|---------------------|
|--------------------|---------------------|
|--------------------|---------------------|
|--------------------|---------------------|
|--------------------|---------------------|
|
|  E E E E +E  E E E   +E  E E E +E  E E E
|--------7-(7)-----7-|-(7)-----7-(7)-------|
|--------------0-----|-----0---------0-----|
|------0---------0---|-------0---------0---|
|----5---------------|---------------------|
|--7-----------------|-------------------7-|
|--------------------|---------------------|


  Eb+
   W                    H         +Q     Q
|-20-----------------|-22--------(22)\-------||
|--------------------|-----------------------||
|--------------------|-----------------------||
|--------------------|-----------------------||
|--------------------|-----------------------||
|--------------------|-----------------------||
|
|  W                    H         +Q     Q
|-17-----------------|-19--------(19)\-------||
|--------------------|-----------------------||
|--------------------|-----------------------||
|--------------------|-----------------------||
|--------------------|-----------------------||
|--------------------|-----------------------||
|
|  E E E E +E  E E E   +E  E E E  +E   E E E
|--------7-(7)-----7-|-(7)-----7--(7)--------||
|--------------0-----|-----0-----------0-----||
|------0---------0---|-------0-----------0---||
|----5---------------|-----------------------||
|--6-----------------|---------------------6-||
|--------------------|-----------------------||


   The Gate Of Hell
    Q=148
    E5/B                        Eb5/Bb
    Gtrs III, IV
         PM  PM           PM  PM                 PM
    H    E E E E   +H     E E E E   +H     +E  E E E   +H.        Q
||---------------|----------------|------------------|------------------||
||o--------------|----------------|------------------|-----------------o||
||---------------|----------------|------------------|------------------||
||--2------2---2-|-(2)------2---1-|-(1)----(1)-1---1-|-(1)--------------||
||o-2------2---2-|-(2)------2---1-|-(1)----(1)-1---1-|-(1)------/12\---o||
||-------0---0---|--------0---0---|--------------0---|------------------||


  E5/B                        Eb5/Bb
  Gtr IV
  H    E E E E   +H     E E E E   +H.          +E  E   +W
|--------------|----------------|--------------------|----------------|
|--------------|----------------|--------------------|----------------|
|--------------|----------------|--------------------|----------------|
|-6------6---6-|-(6)------6---5-|-(5)----------(5)---|----------------|
|--------------|----------------|------------------6-|-(6)------------|
|--------------|----------------|--------------------|----------------|
|
| Gtr III
|      PM  PM           PM  PM                  PM
| H    E E E E   +H     E E E E   +H     +E  E  E  E   +H.        Q
|--------------|----------------|--------------------|----------------|
|--------------|----------------|--------------------|----------------|
|--------------|----------------|--------------------|----------------|
|-2------2---2-|-(2)------2---1-|-(1)----(1)-1-----1-|-(1)------------|
|-2------2---2-|-(2)------2---1-|-(1)----(1)-1-----1-|-(1)------/12\--|
|------0---0---|--------0---0---|---------------0----|----------------|


  E5/B                        Eb5/Bb
  H    E E E E   +H     E E E E   +H.          +E   E   +W
|--------------|----------------|---------------------|----------------|
|--------------|----------------|---------------------|----------------|
|--------------|----------------|---------------------|----------------|
|-6------6---6-|-(6)------6---8-|-(8)----------(8)\-5-|-(5)------------|
|--------------|----------------|---------------------|----------------|
|--------------|----------------|---------------------|----------------|
|
|      PM  PM           PM  PM                  PM
| H    E E E E   +H     E E E E   +H     +E  E  E   E   +H.        Q
|--------------|----------------|---------------------|----------------|
|--------------|----------------|---------------------|----------------|
|--------------|----------------|---------------------|----------------|
|-2------2---2-|-(2)------2---1-|-(1)----(1)-1------1-|-(1)------------|
|-2------2---2-|-(2)------2---1-|-(1)----(1)-1------1-|-(1)------/12\--|
|------0---0---|--------0---0---|---------------0-----|----------------|


                        Q=210
  E5                               N.C.    F5/C
                         2/4      4/4
  Gtrs III, IV
                                   PM----|       PM----|
  W          +W           +H       E S S E E +E  E S S E
|----------|------------|--------|-----------------------||
|----------|------------|--------|-----------------------||
|----------|------------|--------|-----------------------||
|----------|------------|--------|---------3-(3)---------||
|-2--------|-(2)--------|-(2)----|-0-2-2-0-3-(3)-3-3-3-3-||
|-0--------|-(0)--------|-(0)----|-----------------------||


   Pre-Verse
    N.C.(E5)
        PM------------------------------------|
    E E E S S E E S S E   E S S E E S S E S S E
||----------------------|-----------------------|
||o---------------------|-----------------------|
||----------------------|-----------------------|
||--0h2-----------------|-----------------------|
||o-0h2-----------------|-----------------------|
||------0-0-0-0-0-0-0-0-|-0-0-0-0-0-0-0-0-0-0-0-|


                        N.C.    F5/C
      PM----------------------|       PM----|
  E E E S S E E S S E   E S S E E +E  E S S E
|---------------------|--------------------------||
|---------------------|-------------------------o||
|---------------------|--------------------------||
|-0h2-----------------|---------3-(3)------------||
|-0h2-----------------|-0-2-2-0-3-(3)-3-3-3-3---o||
|-----0-0-0-0-0-0-0-0-|--------------------------||


  N.C.(G5)
                                                       5/4
  PM--|    PM       PM--|    PM       PM--|    PM       PM--|    PM     PM|
  S S E Q  E Q  E   S S E Q  E Q  E   S S E Q  E Q  E   S S E Q  E Q  E E E
|-----------------|-----------------|-----------------|-----------------------||
|-----------------|-----------------|-----------------|-----------------------||
|-----------------|-----------------|-----------------|-----------------------||
|-------5----5--5-|-------5----5--5-|-------5----5--5-|-------5----5--5-------||
|-------5----5--5-|-------5----5--5-|-------5----5--5-|-------5----5--5-------||
|-3-3-3----3------|-3-3-3----3------|-3-3-3----3------|-3-3-3----3------3-3---||


   The First Circle
    N.C.(E5)              N.C.    F5/C
   4/4
        PM----------------------|       PM----|
    E E E S S E E S S E   E S S E E +E  E S S E
||----------------------|-----------------------|
||o---------------------|-----------------------|
||----------------------|-----------------------|
||--0h2-----------------|---------3-(3)---------|
||o-0h2-----------------|-0-2-2-0-3-(3)-3-3-3-3-|
||------0-0-0-0-0-0-0-0-|-----------------------|


  N.C.(E5)
      PM------------------------------------|
  E E E S S E E S S E   E S S E E S S E S S E   4x
|---------------------|-------------------------||
|---------------------|------------------------o||
|---------------------|-------------------------||
|-0h2-----------------|-------------------------||
|-0h2-----------------|------------------------o||
|-----0-0-0-0-0-0-0-0-|-0-0-0-0-0-0-0-0-0-0-0---||


  N.C.(G5)
                                                       5/4
  PM--|    PM       PM--|    PM       PM--|    PM       PM--|    PM     PM|
  S S E Q  E Q  E   S S E Q  E Q  E   S S E Q  E Q  E   S S E Q  E Q  E E E
|-----------------|-----------------|-----------------|-----------------------|
|-----------------|-----------------|-----------------|-----------------------|
|-----------------|-----------------|-----------------|-----------------------|
|-------5----5--5-|-------5----5--5-|-------5----5--5-|-------5----5--5-------|
|-------5----5--5-|-------5----5--5-|-------5----5--5-|-------5----5--5-------|
|-3-3-3----3------|-3-3-3----3------|-3-3-3----3------|-3-3-3----3------3-3---|


    N.C.(E5)              N.C.    F5/C
   4/4
        PM----------------------|       PM----|
    E E E S S E E S S E   E S S E E +E  E S S E
||----------------------|-----------------------|
||o---------------------|-----------------------|
||----------------------|-----------------------|
||--0h2-----------------|---------3-(3)---------|
||o-0h2-----------------|-0-2-2-0-3-(3)-3-3-3-3-|
||------0-0-0-0-0-0-0-0-|-----------------------|


  N.C.(E5)
      PM------------------------------------|
  E E E S S E E S S E   E S S E E S S E S S E   4x
|---------------------|-------------------------||
|---------------------|------------------------o||
|---------------------|-------------------------||
|-0h2-----------------|-------------------------||
|-0h2-----------------|------------------------o||
|-----0-0-0-0-0-0-0-0-|-0-0-0-0-0-0-0-0-0-0-0---||


  N.C.(G5)
                                                       5/4
  PM--|    PM       PM--|    PM       PM--|    PM       PM--|    PM     PM|
  S S E Q  E Q  E   S S E Q  E Q  E   S S E Q  E Q  E   S S E Q  E Q  E E E
|-----------------|-----------------|-----------------|-----------------------||
|-----------------|-----------------|-----------------|-----------------------||
|-----------------|-----------------|-----------------|-----------------------||
|-------5----5--5-|-------5----5--5-|-------5----5--5-|-------5----5--5-------||
|-------5----5--5-|-------5----5--5-|-------5----5--5-|-------5----5--5-------||
|-3-3-3----3------|-3-3-3----3------|-3-3-3----3------|-3-3-3----3------3-3---||


   Guitar Solo
    E5/B                   N.C.(E)    F5/C  E5/BD5/AE5/B        N.C.
   4/4
    Gtr IV
     T              T                  T                  T
     |-3--| |-3--|  |-3--| |--3---|    |--3---| |--3---|  |---3---| |--3---|
     E  E E E E  E  E  E E E E    E    E  E   E E E    E  E   E   E E E    E
||--18p12p7p0h7h12-19p12p7p0h7h==12-|-18p12p==7p0h7h==12-19p=12p==7p0h8h==13-|
||o---------------------------------|----------------------------------------|
||----------------------------------|----------------------------------------|
||----------------------------------|----------------------------------------|
||o---------------------------------|----------------------------------------|
||----------------------------------|----------------------------------------|
|
|   Gtr III
|                          PM--|                                PM------|
|    H.                    E   E       E    E   E   E    +E     E   E   E
||----------------------------------|----------------------------------------|
||o---------------------------------|----------------------------------------|
||----------------------------------|----------------------------------------|
||---2------------------------------|--3s===2---0---2----(2)-----------------|
||o--2------------------------------|--3s===2---0---2----(2)----3---2---0----|
||-------------------------0---0----|----------------------------------------|


                                    1.,2.,3.
  F5/C                   N.C.(E)    F5/C  E5/BD5/AE5/B        N.C.
   T              T                  T                  T
   |-3--| |-3--|  |-3--| |--3---|    |--3---| |--3---|  |---3---| |--3---|
   E  E E E E  E  E  E E E E    E    E  E   E E E    E  E   E   E E E    E  4x
|-19p13p8p0h8h13-20p13p8p0h8h==13-|-19p13p==8p0h8h==13-20p=13p==8p0h7h==12--||
|---------------------------------|----------------------------------------o||
|---------------------------------|-----------------------------------------||
|---------------------------------|-----------------------------------------||
|---------------------------------|----------------------------------------o||
|---------------------------------|-----------------------------------------||
|
|                        PM--|                                PM------|
|  H.                    E   E       E    E   E   E    +E     E   E   E     4x
|---------------------------------|-----------------------------------------||
|---------------------------------|----------------------------------------o||
|---------------------------------|-----------------------------------------||
|--3------------------------------|--3s===2---0---2----(2)------------------||
|--3------------------------------|--3s===2---0---2----(2)----3---2---0----o||
|------------------------0---0----|-----------------------------------------||


  4.
  F5/C  E5/BD5/E5/B  F5E5/B N.C.    F5/C
   T
   |--3---|
   E  E   E Q     H         W
|-19p13p==8-8/---20\------|-----------------------||
|-------------------------|-----------------------||
|-------------------------|-----------------------||
|-------------------------|-----------------------||
|-------------------------|-----------------------||
|-------------------------|-----------------------||
|
|                           Gtrs III, IV
|                           PM----|       PM----|
|  E    E   E  E +E  E Q    E S S E E +E  E S S E
|-------------------------|-----------------------||
|-------------------------|-----------------------||
|-------------------------|-----------------------||
|--3s===2---0--2-(2)-3-2--|---------3-(3)---------||
|--3s===2---0--2-(2)-3-2--|-0-2-2-0-3-(3)-3-3-3-3-||
|-------------------------|-----------------------||


   The Second Circle
    N.C.(E5)
    Gtrs III, IV
        PM------------------------------------|
    E E E S S E E S S E   E S S E E S S E S S E
||----------------------|-----------------------|
||o---------------------|-----------------------|
||----------------------|-----------------------|
||--0h2-----------------|-----------------------|
||o-0h2-----------------|-----------------------|
||------0-0-0-0-0-0-0-0-|-0-0-0-0-0-0-0-0-0-0-0-|


                        N.C.    F5/C
      PM----------------------|       PM----|
  E E E S S E E S S E   E S S E E +E  E S S E    4x
|---------------------|--------------------------||
|---------------------|-------------------------o||
|---------------------|--------------------------||
|-0h2-----------------|---------3-(3)------------||
|-0h2-----------------|-0-2-2-0-3-(3)-3-3-3-3---o||
|-----0-0-0-0-0-0-0-0-|--------------------------||


  N.C.(G5)
                                                       5/4
  PM--|    PM       PM--|    PM       PM--|    PM       PM--|    PM     PM|
  S S E Q  E Q  E   S S E Q  E Q  E   S S E Q  E Q  E   S S E Q  E Q  E E E
|-----------------|-----------------|-----------------|-----------------------||
|-----------------|-----------------|-----------------|-----------------------||
|-----------------|-----------------|-----------------|-----------------------||
|-------5----5--5-|-------5----5--5-|-------5----5--5-|-------5----5--5-------||
|-------5----5--5-|-------5----5--5-|-------5----5--5-|-------5----5--5-------||
|-3-3-3----3------|-3-3-3----3------|-3-3-3----3------|-3-3-3----3------3-3---||


   Guitar Solo
    E5/B                   N.C.(E)    F5/C  E5/BD5/AE5/B        N.C.
   4/4
    Gtr IV
     T              T                  T                  T
     |-3--| |-3--|  |-3--| |--3---|    |--3---| |--3---|  |---3---| |--3---|
     E  E E E E  E  E  E E E E    E    E  E   E E E    E  E   E   E E E    E
||--18p12p7p0h7h12-19p12p7p0h7h==12-|-18p12p==7p0h7h==12-19p=12p==7p0h8h==13-|
||o---------------------------------|----------------------------------------|
||----------------------------------|----------------------------------------|
||----------------------------------|----------------------------------------|
||o---------------------------------|----------------------------------------|
||----------------------------------|----------------------------------------|
|
|   Gtr III
|                          PM--|                                PM------|
|    H.                    E   E       E    E   E   E    +E     E   E   E
||----------------------------------|----------------------------------------|
||o---------------------------------|----------------------------------------|
||----------------------------------|----------------------------------------|
||---2------------------------------|--3s===2---0---2----(2)-----------------|
||o--2------------------------------|--3s===2---0---2----(2)----3---2---0----|
||-------------------------0---0----|----------------------------------------|


                                    1.,2.,3.
  F5/C                   N.C.(E)    F5/C  E5/BD5/AE5/B        N.C.
   T              T                  T                  T
   |-3--| |-3--|  |-3--| |--3---|    |--3---| |--3---|  |---3---| |--3---|
   E  E E E E  E  E  E E E E    E    E  E   E E E    E  E   E   E E E    E  4x
|-19p13p8p0h8h13-20p13p8p0h8h==13-|-19p13p==8p0h8h==13-20p=13p==8p0h7h==12--||
|---------------------------------|----------------------------------------o||
|---------------------------------|-----------------------------------------||
|---------------------------------|-----------------------------------------||
|---------------------------------|----------------------------------------o||
|---------------------------------|-----------------------------------------||
|
|                        PM--|                                PM------|
|  H.                    E   E       E    E   E   E    +E     E   E   E     4x
|---------------------------------|-----------------------------------------||
|---------------------------------|----------------------------------------o||
|---------------------------------|-----------------------------------------||
|--3------------------------------|--3s===2---0---2----(2)------------------||
|--3------------------------------|--3s===2---0---2----(2)----3---2---0----o||
|------------------------0---0----|-----------------------------------------||


  4.
  F5/C  E5/BD5/AE5/B     F5/C E5/B
   T                  T
   |-------6-------|  |---3---|
   E  E   E E E    E  E   E   E +Q
|-19p13p==8p0h8h==13-20p=13p==8-(8)\--|
|-------------------------------------|
|-------------------------------------|
|-------------------------------------|
|-------------------------------------|
|-------------------------------------|
|
|  E    E   E   E    +E     E    Q
|-------------------------------------|
|-------------------------------------|
|-------------------------------------|
|--3s===2---0---2----(2)----3----2----|
|--3s===2---0---2----(2)----3----2----|
|-------------------------------------|


    N.C.(E)   G5F#5        F5  E5        E5/BF5/C
    ~~~~~~~~~~~~~~~~~~~~~~~~~~~~~~~~~
    W                   +H       +E.   S S S S S
||--------------------|---------------------------|
||o-5-----------------|-(5)------(5)---5-5h6p5p3--|
||--------------------|---------------------------|
||--------------------|---------------------------|
||o-------------------|---------------------------|
||--------------------|---------------------------|
|
|   PM------|     PM|        PM   PM-|
|   E S S E E E E E E    E E E E  E  E   E   E
||--------------------|---------------------------|
||o-------------------|---------------------------|
||--------------------|---------------------------|
||--------------------|------------------2s==3----|
||o-----------5s4-----|--4s3---2---------2s==3----|
||--0-0-0-0-0-3s2-0-0-|--2s1-0-0--0--0------------|


  N.C.(E)   G5F#5        F5  E5        F5/CE5/B
  ~~~~~~~~~~~~~~~~~~~~~~~~~~~~~~~~~
  W                   +H       +E.   S S S S S
|-------------------|--------------------------|
|-5-----------------|-(5)------(5)---5-5h6p5p3-|
|-------------------|--------------------------|
|-------------------|--------------------------|
|-------------------|--------------------------|
|-------------------|--------------------------|
|
| PM------|     PM|        PM   PM-|
| E S S E E E E E E    E E E E  E  E   E   E
|-------------------|--------------------------|
|-------------------|--------------------------|
|-------------------|--------------------------|
|-------------------|------------------3s==2---|
|-----------5s4-----|--4s3---2---------3s==2---|
|-0-0-0-0-0-3s2-0-0-|--2s1-0-0--0--0-----------|


  N.C.(E)   G5F#5        F5  E5        E5/BF5/C
  ~~~~~~~~~~~~~~~~~~~~~~~~~~~~~~~~~
  W                   +H       +E.   S S S S S
|-------------------|---------------------------|
|-------------------|---------------------------|
|-4-----------------|-(4)------(4)---4-4h5p4p2--|
|-------------------|---------------------------|
|-------------------|---------------------------|
|-------------------|---------------------------|
|
| PM------|     PM|        PM   PM-|
| E S S E E E E E E    E E E E  E  E   E   E
|-------------------|---------------------------|
|-------------------|---------------------------|
|-------------------|---------------------------|
|-------------------|------------------2s==3----|
|-----------5s4-----|--4s3---2---------2s==3----|
|-0-0-0-0-0-3s2-0-0-|--2s1-0-0--0--0------------|


  1.
  N.C.(E)   G5F#5        F5  E5        F5/CE5/B
  ~~~~~~~~~~~~~~~~~~~~~~~~~~~~~~~~~
  W                   +H       +E.   S S S S S
|-------------------|---------------------------||
|-------------------|--------------------------o||
|-4-----------------|-(4)------(4)---4-4h5p4p2--||
|-------------------|---------------------------||
|-------------------|--------------------------o||
|-------------------|---------------------------||
|
| PM------|     PM|        PM   PM-|
| E S S E E E E E E    E E E E  E  E   E   E
|-------------------|---------------------------||
|-------------------|--------------------------o||
|-------------------|---------------------------||
|-------------------|------------------3s==2----||
|-----------5s4-----|--4s3---2---------3s==2---o||
|-0-0-0-0-0-3s2-0-0-|--2s1-0-0--0--0------------||


  2.
  N.C.(E)        G5F#5            F5  E5    N.C.
   W                       +H.              +Q
|------------------------|--------------------------||
|------------------------|--------------------------||
|-[4]b6==================|=(4)b8============(4)r----||
|------------------------|--------------------------||
|------------------------|--------------------------||
|------------------------|--------------------------||
|
|  PM----------|     PM|            PM  PM|
|  E     S S E E E E E E    E     E E E E E  E   E
|------------------------|--------------------------||
|------------------------|--------------------------||
|------------------------|--------------------------||
|------------------------|-------------------3s==2--||
|----------------5s4-----|--4s====3---2------3s==2--||
|--0-----0-0-0-0-3s2-0-0-|--2s====1-0-0-0-0---------||


   Bridge
    N.C.          D5E5  N.C.          G5
    Gtrs III, IV
    PM----------|       PM----------|
    E S S E E E E E E   E S S E E E E  Q
||--------------------|-------------------|
||o-------------------|-------------------|
||--------------------|-------------------|
||----------------7s9-|---------------12--|
||o-7-7-7-7-7-8-7-5s7-|-7-7-7-7-7-8-7-10--|
||--------------------|-------------------|


  N.C.           E5F5   N.C.          Bb5
  PM-----------|        PM----------|
  E S S E E  E E E  E   E S S E E E E Q    4x
|---------------------|--------------------||
|---------------------|-------------------o||
|---------------------|--------------------||
|----------------9s10-|--------------------||
|-8-8-8-8-8-10-8-7s=8-|-5-5-5-5-5-7-5-8---o||
|---------------------|---------------6----||


 Guitar Solo
  Q=211
  N.C.(E)      E5                           G5
  Gtr IV
                           ~~~~~~~~~~~~~
  |-3--| |-3-|
  E E  E E E E Q   Q       H         H
|------------------------|---------------------|
|------------------------|---------------------|
|-9-9h12p9-9-9-9---------|---------------------|
|-----------------12-----|-9--------[9]--------|
|------------------------|---------------------|
|------------------------|---------------------|
|
| Gtr III
| PM---------|     PM----------|     PM---|
| |-3--| |-3-|     |-3-|   |-3-|     |-3--|
| E E  E E E E Q   E E E   E E E Q   E  E E Q
|------------------------|---------------------|
|------------------------|---------------------|
|------------------------|---------------------|
|------------------------|---------------------|
|--------------2---------|-------2----------5--|
|-0-0--0-0-0-0-0---0-0-0-|-0-0-0-0---0--0-0-3--|


  N.C.(E)      E5                                        G5
                                    ~~~~~~~~~~~~~~~~~
  |-3--| |-3-|
  E E  E E E E  Q     E     E      +Q.        E  +Q.        E
|--------------------------------|-------------------------17--|
|--------------------------------|-----------------------------|
|--------------------------------|-----------[9]-(9)-----------|
|-9-9h12p9-9-9-[9]---------------|-----------------------------|
|-------------------[12]---[7]---|-(7)-------------------------|
|--------------------------------|-----------------------------|
|
| PM---------|        PM-----------------|        PM---|
| |-3--| |-3-|        |---3----|    |-3--|        |-3--|
| E E  E E E E  Q     E  E     E    E  E E Q      E  E E Q
|--------------------------------|-----------------------------|
|--------------------------------|-----------------------------|
|--------------------------------|-----------------------------|
|--------------------------------|-----------------------------|
|---------------2----------------|---------2-------------5-----|
|-0-0--0-0-0-0--0-----0--0-----0-|--0--0-0-0------0--0-0-3-----|


  N.C.(Bb)            Bb5                              A5
                                                           ~~~~~~~~~~~~
   E    E    E    E    E  E  E    E      E.        +S   E  E      +Q.         E
|-15---17---13---17---12-17------17---|-20b22r====(20)-17--------------------17-|
|---------------------------15--------|-------------------20b22==(20)r----------|
|-------------------------------------|-----------------------------------------|
|-------------------------------------|-----------------------------------------|
|-------------------------------------|-----------------------------------------|
|-------------------------------------|-----------------------------------------|
|
|  PM---------------|        PM-----------------|                  PM----|
|  |--3---|  |--3---|        |--3---|    |--3---|                  |--3--|
|  E E    E  E E    E  Q     E E    E    E    E E       Q          E   E E Q
|-------------------------------------|-----------------------------------------|
|-------------------------------------|-----------------------------------------|
|-------------------------------------|-----------------------------------------|
|-------------------------------------|-----------------------------------------|
|----------------------8--------------|-----------------7------------------7----|
|--6-6----6--6-6----6--6-----6-6----6-|--5----5-5-------5----------5---5-5-5----|


  N.C.(Bb)            Bb5                              A5
                                                           ~~~~~~~~~~~~
   E    E    E    E    E  E  E    E      E.        +S   E  E      +H
|------17---12---17---15-17-13---15---|-17b18r====(17)-15----------------------|
|-15----------------------------------|-------------------18b20==(18)r---------|
|-------------------------------------|----------------------------------------|
|-------------------------------------|----------------------------------------|
|-------------------------------------|----------------------------------------|
|-------------------------------------|----------------------------------------|
|
|  PM---------------|        PM-----------------|                  PM----|
|  |--3---|  |--3---|        |--3---|    |--3---|                  |--3--|
|  E E    E  E E    E  Q     E E    E    E    E E       Q          E   E E Q
|-------------------------------------|----------------------------------------|
|-------------------------------------|----------------------------------------|
|-------------------------------------|----------------------------------------|
|-------------------------------------|----------------------------------------|
|----------------------8--------------|-----------------7------------------7---|
|--6-6----6--6-6----6--6-----6-6----6-|--5----5-5-------5----------5---5-5-5---|


  N.C.(E)             E5                                     G5
                                                       ~
   E      S   S Q     E E  E    E        +Q      +E  E Q     Q
|--------------------------------------|------------------------|
|--------------------------------------|------------------------|
|-[4]b6---4p==2---------2-[4]---2b4====|=(2)r====(2)p0----------|
|---------------4-----5----------------|---------------2-----0--|
|--------------------------------------|------------------------|
|--------------------------------------|------------------------|
|
|  PM---------------|      PM------------------|       PM--|
|  |---3----|   |-3-|      |----3----|    |-3--|       |-3-|
|  E    E   E   E E E Q    E  E      E    E  E E  Q    E E E Q
|--------------------------------------|------------------------|
|--------------------------------------|------------------------|
|--------------------------------------|------------------------|
|--------------------------------------|------------------------|
|---------------------2----------------|----------2----------5--|
|--0----0---0---0-0-0-0----0--0------0-|--0--0-0--0----0-0-0-3--|


  N.C.(E)           E5                                        G5
                             ~~~~~~~~~~~~~~~~~~~~~~~~~~~~~~~~~
  E     E   E   E   E E E    E         +H.              +E    E
|------------------------------------|-----------------------------|
|------------------------------------|-----------------------------|
|-2b4---2p==0-------0-2-4---[5]b7====|=(5)--------------(5)r\------|
|---------------4--------------------|-----------------------------|
|------------------------------------|-----------------------------|
|------------------------------------|-----------------------------|
|
| PM--------------|     PM-------------------|    PM--|
| |---3---| |--3--|     |----3-----|    |-3--|    |-3-|
| E   E   E E E   E Q   E E        E    E  E E Q  E E E  Q
|------------------------------------|-----------------------------|
|------------------------------------|-----------------------------|
|------------------------------------|-----------------------------|
|------------------------------------|-----------------------------|
|-------------------2----------------|---------2---------5---------|
|-0---0---0-0-0---0-0---0-0--------0-|--0--0-0-0--0-0-0--3---------|


  N.C.(Bb)      Bb5                        A5
  |-3--| |-3--| |--3--| |--3--|    |--3--|  |--3--|  |--3--|  |--3--|
  E E  E E E  E E  E  E E  E  E    E  E  E  E  E  E  E  E  E  E  E  E
|--------7h8h10---------8h10h12-|----------10h12h13-15p14p12----------|
|-7h8h10--------8h10h12---------|-10h12h13-------------------15p14p12-|
|-------------------------------|-------------------------------------|
|-------------------------------|-------------------------------------|
|-------------------------------|-------------------------------------|
|-------------------------------|-------------------------------------|
|
| PM---------|          PM--------------|            PM---|
| |-3--| |-3--|         |--3--|    |--3--|           |--3--|
| E E  E E E  E Q       E  E  E    E  E  E  Q        E  E  E  Q
|-------------------------------|-------------------------------------|
|-------------------------------|-------------------------------------|
|-------------------------------|-------------------------------------|
|-------------------------------|-------------------------------------|
|---------------8---------------|-----------7-----------------7-------|
|-6-6--6-6-6--6-6-------6--6--6-|--5--5--5--5--------5--5--5--5-------|


  N.C.(Bb)          Bb5                          A5
                                                           ~~~~~
   |--3--|  |--3--|  |--3--|  |--3--|    |--3--|  |--3--|
   E  E  E  E  E  E  E  E  E  E  E  E    E  E  E  E  E  E  H
|-17p15p14----------19p17p15----------|-21p19p17----------22b24--------|
|----------17p15p14----------19p17p15-|----------21p19p17--------------|
|-------------------------------------|--------------------------------|
|-------------------------------------|--------------------------------|
|-------------------------------------|--------------------------------|
|-------------------------------------|--------------------------------|
|
|  PM------------|            PM--------------|            PM-----|
|  |--3--|  |--3--|           |--3--|    |--3--|           |--3---|
|  E  E  E  E  E  E  Q        E  E  E    E  E  E  Q        E    E E Q
|-------------------------------------|--------------------------------|
|-------------------------------------|--------------------------------|
|-------------------------------------|--------------------------------|
|-------------------------------------|--------------------------------|
|--------------------8----------------|-----------7-----------------7--|
|--6--6--6--6--6--6--6--------6--6--6-|--5--5--5--5--------5----5-5-5--|


    N.C.(E)       E5
    Gtr IV
     |---3----|    |--3---|        |---3----|  |---3----|
     Q   Q    Q    Q Q    Q        Q   Q    Q  Q   Q    Q
||------------------------------|-11----------10------------|
||o------9---12------9---12-----|------9---12------9---12---|
||--10------------10------------|---------------------------|
||------------------------------|---------------------------|
||o-----------------------------|---------------------------|
||------------------------------|---------------------------|
|
|   Gtr III
|    |---3----|    |--3---|        |---3----|  |---3----|
|    Q   Q    Q    Q Q    Q        Q   Q    Q  Q   Q    Q
||------------------------------|---------------------------|
||o-----------------------------|-10-----------9------------|
||-------7---10------7---10-----|------7---10------7---10---|
||---9-------------9------------|---------------------------|
||o-----------------------------|---------------------------|
||------------------------------|---------------------------|
|
|   Gtr V
|    PM---------|      PM------------|         PM|
|    E E   E    E  Q   E    S S    E E   Q     E E   E    E
||------------------------------|---------------------------|
||o-----------------------------|---------------------------|
||------------------------------|---------------------------|
||------------------------------|---------------------------|
||o----------------2------------|--------2------------------|
||---0-0---0----0--0---0----0-0-|--0-0---0-----0-0---3p===0-|


   |----3----|    |---3---|        |----3----|  |----3----|
   Q    Q    Q    Q  Q    Q        Q    Q    Q  Q    Q    Q
|-------------------------------|-14-----------13--------------|
|------12---15------12---15-----|------12---15------12---15----|
|-13-------------13-------------|------------------------------|
|-------------------------------|------------------------------|
|-------------------------------|------------------------------|
|-------------------------------|------------------------------|
|
|  |----3----|    |---3---|        |----3----|  |----3----|
|  Q    Q    Q    Q  Q    Q        Q    Q    Q  Q    Q    Q
|-------------------------------|-11-----------10--------------|
|-------9---12-------9---12-----|-------9---12-------9---12----|
|-10-------------10-------------|------------------------------|
|-------------------------------|------------------------------|
|-------------------------------|------------------------------|
|-------------------------------|------------------------------|
|
|  PM----------|       PM------------|          PM|
|  E E    E    E  Q    E    S S    E E    Q     E E    E    E
|-------------------------------|------------------------------|
|-------------------------------|------------------------------|
|-------------------------------|------------------------------|
|-------------------------------|------------------------------|
|-----------------2-------------|---------2--------------------|
|--0-0----0----0--0----0----0-0-|--0-0----0-----0-0----3p===0--|


  N.C.(Bb)    Bb5                   A5       Bb5
                                ~~~~~~~~~
  |---3---|    |---3---|
  Q   Q   Q    Q  Q    Q        H      H
|----------------------------|-----------------|
|----------------10---11-----|-10--------------|
|-----7---9---10-------------|---------7-------|
|-8--------------------------|-----------------|
|----------------------------|-----------------|
|----------------------------|-----------------|
|
|                               ~~~~~~~~~
| |---3---|    |---3---|
| Q   Q   Q    Q  Q    Q        H      H
|----------------------------|-----------------|
|----------------------------|-----------------|
|--------------7--9---10-----|--9--------------|
|-----7---8------------------|---------7-------|
|-7--------------------------|-----------------|
|----------------------------|-----------------|
|
| PM--------|       PM------------|    PM|
| E E   E   E  Q    E    S S    E E Q  E E E E
|----------------------------|-----------------|
|----------------------------|-----------------|
|----------------------------|-----------------|
|----------------------------|-----------------|
|--------------8-------------|------7------7s8-|
|-6-6---6---6--6----6----6-6-|--5-5-5--5-5-5s6-|


                                     A5
                                 ~~~~~~~~~~
  |---3----|    |---3---|
  Q   Q    Q    Q  Q    Q        H       H
|-----------------10---11-----|-10------11--------||
|-----8---10---11-------------|------------------o||
|-8---------------------------|-------------------||
|-----------------------------|-------------------||
|-----------------------------|------------------o||
|-----------------------------|-------------------||
|
|                                ~~~~~~~~~~
| |---3----|    |---3---|
| Q   Q    Q    Q  Q    Q        H       H
|-----------------------------|-------------------||
|---------------8-10---11-----|-10------11-------o||
|-----7----8------------------|-------------------||
|-7---------------------------|-------------------||
|-----------------------------|------------------o||
|-----------------------------|-------------------||
|
| PM---------|       PM------------|     PM|
| E E   E    E  Q    E    S S    E E Q   E E Q
|-----------------------------|-------------------||
|-----------------------------|------------------o||
|-----------------------------|-------------------||
|-----------------------------|-------------------||
|---------------8-------------|------7-------7---o||
|-6-6---6----6--6----6----6-6-|--5-5-5---5-5-5----||


 The Third Circle
  Q=124
  Em
  Gtrs III, IV
                       >
   ~~~~~~~~~~~~~~~~~~~~~~~
   W                  +W
|-12---------------|-(12)---------------|
|-12---------------|-(12)---------------|
|------------------|--------------------|
|------------------|--------------------|
|------------------|--------------------|
|------------------|--------------------|
|
| Gtr V
|  W                  +W
|------------------|--------------------|
|------------------|--------------------|
|------------------|--------------------|
|--2---------------|--(2)---------------|
|--2---------------|--(2)---------------|
|--0---------------|--(0)---------------|
|
| Gtr II
|  E E E E E E E E     E  E E E E E E E
|------------------|--------------------|
|--------0---------|----------0---------|
|------0-----------|--------0-----------|
|----9-------9---9-|------9-------9---9-|
|--7-------7---7---|---7--------7---7---|
|------------------|--------------------|


   W                   W
|-------------------|---------------------|
|-------------------|---------------------|
|-------------------|---------------------|
|-------------------|---------------------|
|-------------------|---------------------|
|-------------------|---------------------|
|
|                                >
| +W                  +H        +H
|-------------------|---------------------|
|-------------------|---------------------|
|-------------------|---------------------|
|-(2)---------------|-(2)-------(2)-------|
|-(2)---------------|-(2)-------(2)-------|
|-(0)---------------|-(0)-------(0)-------|
|
|  E  E E E E E E E    E  E E E  E  E E E
|-------------------|---------------------|
|---------0---------|---------0-----------|
|-------0-----------|-------0-------------|
|-----9-------9---9-|-----9---------9---9-|
|--7--------7---7---|--7---------7----7---|
|-------------------|---------------------|


                                        Gadd9/D
    Gtr II
    E E E E E E E E   E E E E E E E E   E E E E +E  E E E   E E E E +E  E E E
||------------------|-----------------|-------------------|--------------------|
||o-------0---------|-------0---------|-------0-(0)-------|-------0-(0)--------|
||------0-----------|-----0-----------|-----0-------------|-----0--------------|
||----9-------9---9-|---9-------9---9-|---7---------7---7-|---7---------7---7--|
||o-7-------7---7---|-7-------7---7---|-5-------------5---|-5-------------5----|
||------------------|-----------------|-------------------|--------------------|


  G/C
  E E E E +E  E Q    E E E E +E  E Q
|------------------|------------------|
|-------0-(0)------|-------0-(0)------|
|-----0-------0----|-----0-------0----|
|---5-----------5--|---5-----------5--|
|-3----------------|-3----------------|
|------------------|------------------|


  N.C.
  Q  E S S +E  E  E E   Q  E S S +E  E  E E
|---------------------|----------------------||
|---------------------|---------------------o||
|---------------------|----------------------||
|---------------------|----------------------||
|----7-7h8-(8)-7-10-8-|----7-7h8-(8)-7-10-8-o||
|-0-------------------|-0--------------------||


  G/E                                 D
  E E E E E E E E   E E E E E E E E   E E E E E E E E   E E E E E E E E
|-----7-----7-----|-7-----7-----7---|-----5-----5-----|-5-----5-----5---|
|---8-----8-----8-|-----8-----8---8-|---7-----7-----7-|-----7-----7---7-|
|-9-----9-----9---|---9-----9-------|-7-----7-----7---|---7-----7-------|
|-----------------|-----------------|-----------------|-----------------|
|-----------------|-----------------|-----------------|-----------------|
|-----------------|-----------------|-----------------|-----------------|


  C
  E E E E E E E E   E E E E E E E E
|-----3-----3-----|-3-----3-----3---|
|---5-----5-----5-|-----5-----5---5-|
|-5-----5-----5---|---5-----5-------|
|-----------------|-----------------|
|-----------------|-----------------|
|-----------------|-----------------|


    N.C.
    Q  E S S +E  E  E E   Q  E S S +E  E  E E
||----------------------|----------------------||
||o---------------------|---------------------o||
||----------------------|----------------------||
||----------------------|----------------------||
||o----7-7h8-(8)-7-10-8-|----7-7h8-(8)-7-10-8-o||
||--0-------------------|-0--------------------||


 Bridge
  Q=218
  G5
  Gtr IV
  Q  Q     H           W
|--------------------|-----------------------|
|--------------------|-----------------------|
|--------------------|-----------------------|
|--------------------|-----------------------|
|-5------------------|-----------------------|
|-3------------------|-----------------------|
|
| Gtr III
|    PM------------------------------------|
| Q  E S S E E S S E   E S S E E S S E S S E
|--------------------|-----------------------|
|--------------------|-----------------------|
|--------------------|-----------------------|
|--------------------|-----------------------|
|-5------------------|-----------------------|
|-3--3-3-3-3-3-3-3-3-|-3-3-3-3-3-3-3-3-3-3-3-|


  W                     W
|---------------------|-------------------------|
|---------------------|-------------------------|
|---------------------|-------------------------|
|---------------------|-------------------------|
|---------------------|-------------------------|
|---------------------|-------------------------|
|
|     PM------------------------------------|
| E E E S S E E S S E   E S S E E S S E S S E
|---------------------|-------------------------|
|---------------------|-------------------------|
|---------------------|-------------------------|
|---------------------|-------------------------|
|-5h6-----------------|-------------------------|
|-----3-3-3-3-3-3-3-3-|-3-3-3-3-3-3-3-3-3-3-3---|


  E E Q     H           W
|---------------------|-----------------------|
|---------------------|-----------------------|
|---------------------|-----------------------|
|---------------------|-----------------------|
|---------------------|-----------------------|
|-0h3-----------------|-----------------------|
|
|     PM------------------------------------|
| E E E S S E E S S E   E S S E E S S E S S E
|---------------------|-----------------------|
|---------------------|-----------------------|
|---------------------|-----------------------|
|---------------------|-----------------------|
|---------------------|-----------------------|
|-0h3-3-3-3-3-3-3-3-3-|-3-3-3-3-3-3-3-3-3-3-3-|


                        N.C.(Bb)Bb5N.C.(A) A5
                        PM----|    PM----|
  W                     S S S S Q  S S S S E E
|---------------------|-------------------------|
|---------------------|-------------------------|
|---------------------|-------------------------|
|---------------------|-------------------------|
|---------------------|---------8----------7----|
|---------------------|-6-6-6-6-6--5-5-5-5-5-0--|
|
|     PM----------------------|    PM----|
| E E E S S E E S S E   S S S S Q  S S S S E E
|---------------------|-------------------------|
|---------------------|-------------------------|
|---------------------|-------------------------|
|---------------------|-------------------------|
|-5h6-----------------|---------8----------7----|
|-----3-3-3-3-3-3-3-0-|-6-6-6-6-6--5-5-5-5-5-0--|


  G5
  Q  Q     H           W
|--------------------|-----------------------|
|--------------------|-----------------------|
|--------------------|-----------------------|
|--------------------|-----------------------|
|-5------------------|-----------------------|
|-3------------------|-----------------------|
|
|    PM------------------------------------|
| Q  E S S E E S S E   E S S E E S S E S S E
|--------------------|-----------------------|
|--------------------|-----------------------|
|--------------------|-----------------------|
|--------------------|-----------------------|
|-5------------------|-----------------------|
|-3--3-3-3-3-3-3-3-3-|-3-3-3-3-3-3-3-3-3-3-3-|


  E E Q     H           W
|---------------------|-------------------------|
|---------------------|-------------------------|
|---------------------|-------------------------|
|---------------------|-------------------------|
|-5h6-----------------|-------------------------|
|---------------------|-------------------------|
|
|     PM------------------------------------|
| E E E S S E E S S E   E S S E E S S E S S E
|---------------------|-------------------------|
|---------------------|-------------------------|
|---------------------|-------------------------|
|---------------------|-------------------------|
|-5h6-----------------|-------------------------|
|-----3-3-3-3-3-3-3-3-|-3-3-3-3-3-3-3-3-3-3-3---|


  E E Q     H           W
|---------------------|-----------------------|
|---------------------|-----------------------|
|---------------------|-----------------------|
|---------------------|-----------------------|
|---------------------|-----------------------|
|-0h3-----------------|-----------------------|
|
|     PM------------------------------------|
| E E E S S E E S S E   E S S E E S S E S S E
|---------------------|-----------------------|
|---------------------|-----------------------|
|---------------------|-----------------------|
|---------------------|-----------------------|
|---------------------|-----------------------|
|-0h3-3-3-3-3-3-3-3-3-|-3-3-3-3-3-3-3-3-3-3-3-|


                        N.C.(Bb)Bb5N.C.(A) A5
                        PM----|    PM----|
  E E Q     H           S S S S Q  S S S S E E
|---------------------|-------------------------|
|---------------------|-------------------------|
|---------------------|-------------------------|
|---------------------|-------------------------|
|-5h6-----------------|---------8----------7----|
|---------------------|-6-6-6-6-6--5-5-5-5-5-0--|
|
|     PM----------------------|    PM----|
| E E E S S E E S S E   S S S S Q  S S S S E E
|---------------------|-------------------------|
|---------------------|-------------------------|
|---------------------|-------------------------|
|---------------------|-------------------------|
|-5h6-----------------|---------8----------7----|
|-----3-3-3-3-3-3-3-0-|-6-6-6-6-6--5-5-5-5-5-0--|


    G5
    Gtrs III, IV
       PM------------------------------------|
    Q  E S S E E S S E   E S S E E S S E S S E
||---------------------|-----------------------|
||o--------------------|-----------------------|
||---------------------|-----------------------|
||---------------------|-----------------------|
||o-5------------------|-----------------------|
||--3--3-3-3-3-3-3-3-3-|-3-3-3-3-3-3-3-3-3-3-3-|


      PM------------------------------------|
  E E E S S E E S S E   E S S E E S S E S S E
|---------------------|------------------------|
|---------------------|------------------------|
|---------------------|------------------------|
|---------------------|------------------------|
|-5h6-----------------|------------------------|
|-----3-3-3-3-3-3-3-3-|-3-3-3-3-3-3-3-3-3-3-3--|


      PM------------------------------------|
  E E E S S E E S S E   E S S E E S S E S S E
|---------------------|-----------------------|
|---------------------|-----------------------|
|---------------------|-----------------------|
|---------------------|-----------------------|
|---------------------|-----------------------|
|-0h3-3-3-3-3-3-3-3-3-|-3-3-3-3-3-3-3-3-3-3-3-|


                        N.C.(Bb)Bb5N.C.(A) A5
      PM----------------------|    PM----|
  E E E S S E E S S E   S S S S Q  S S S S E E
|---------------------|--------------------------||
|---------------------|-------------------------o||
|---------------------|--------------------------||
|---------------------|--------------------------||
|-5h6-----------------|---------8----------7----o||
|-----3-3-3-3-3-3-3-0-|-6-6-6-6-6--5-5-5-5-5-0---||


    G5     A5BbA5           G5A5   G5     A5BbC5           BbA5Bb5
         PM--|                          PM--|
    H    E E E E   +H     E E Q    H    E E E  E    +H     E E Q
||---------------|---------------|---------------|-----------------|
||o--------------|---------------|---------------|-----------------|
||---------------|---------------|---------------|-----------------|
||---------------|---------------|---------------|-----------------|
||o-5----5-7-8-7-|-(7)----7s5-7--|-5----5-7-8-10-|-(10)----8s7-8---|
||--3----3-5-6-5-|-(5)----5s3-5--|-3----3-5-6--8-|--(8)----6s5-6---|


  G5     A5BbA5           G5A5   F5     G5A5G5
       PM--|
  H    E E E E   +H     E E Q    H    E E E E   +W
|--------------|---------------|--------------|---------||
|--------------|---------------|--------------|--------o||
|--------------|---------------|--------------|---------||
|--------------|---------------|--------------|---------||
|-5----5-7-8-7-|-(7)----7s5-7--|-3----3s5-7-5-|-(5)----o||
|-3----3-5-6-5-|-(5)----5s3-5--|-1----1s3-5-3-|-(3)-----||


    G5     A5 Bb5A5              G5A5    G5     A5 Bb5C5            Bb5A5 Bb5
    Gtr IV
    H    E  E  E  E    +H      E E  Q    H    E  E  E   E    +H      E  E  Q
||------------------|------------------|------------------|--------------------|
||o-----------------|------------------|------------------|--------------------|
||------------------|------------------|------------------|--------------------|
||--8----8-10-12-10-|-(10)----10-8-10--|-8----8-10-12-/13-|-(13)----12-10-12---|
||o-----------------|------------------|------------------|--------------------|
||------------------|------------------|------------------|--------------------|
|
|   Gtr III
|   H    E  E  E  E    +H      E E  Q    H    E  E  E   E    +H      E  E  Q
||------------------|------------------|------------------|--------------------|
||o-----------------|------------------|------------------|--------------------|
||------------------|------------------|------------------|--------------------|
||--5----5--7--8--7-|--(7)-----7-5--7--|-5----5--7--8-/10-|-(10)-----8--7--8---|
||o-----------------|------------------|------------------|--------------------|
||------------------|------------------|------------------|--------------------|
|
|   Gtr V
|        PM---|                               PM---|
|   H    E  E  E  E    +H      E E  Q    H    E  E  E   E    +H      E  E  Q
||------------------|------------------|------------------|--------------------|
||o-----------------|------------------|------------------|--------------------|
||------------------|------------------|------------------|--------------------|
||------------------|------------------|------------------|--------------------|
||o-5----5--7--8--7-|--(7)-----7s5--7--|-5----5--7--8--10-|-(10)-----8s=7--8---|
||--3----3--5--6--5-|--(5)-----5s3--5--|-3----3--5--6---8-|--(8)-----6s=5--6---|


  G5     A5 Bb5A5              G5A5     F5     G5A5 G5
  H    E  E  E  E    +H      E E  E E   H    E E  E E   +W
|-----------------|-------------------|---------------|---------||
|-----------------|-------------------|---------------|--------o||
|-----------------|-------------------|---------------|---------||
|-8----8-10-12-10-|-(10)----10-8-10-8-|-7----7-8-10-8-|-(8)-----||
|-----------------|-------------------|---------------|--------o||
|-----------------|-------------------|---------------|---------||
|
| H    E  E  E  E    +H      E E  E E   H    E E  E E   +W
|-----------------|-------------------|---------------|---------||
|-----------------|-------------------|---------------|--------o||
|-----------------|-------------------|---------------|---------||
|-5----5--7--8--7-|--(7)-----7-5--7-5-|-3----3-5--7-5-|-(5)-----||
|-----------------|-------------------|---------------|--------o||
|-----------------|-------------------|---------------|---------||
|
|      PM---|
| H    E  E  E  E    +H      E E  Q     H    E E  E E   +W
|-----------------|-------------------|---------------|---------||
|-----------------|-------------------|---------------|--------o||
|-----------------|-------------------|---------------|---------||
|-----------------|-------------------|---------------|---------||
|-5----5--7--8--7-|--(7)-----7s5--7---|-3----3s5--7-5-|-(5)----o||
|-3----3--5--6--5-|--(5)-----5s3--5---|-1----1s3--5-3-|-(3)-----||


   The Fourth/Fifth Circle
    G5           A5      G5 F#5   G5 F#5 G5           A5      G5 F#5   G5
    Gtrs III, IV
         PM----|                              PM----|
    H    E S S E E   +E  Q  E +E  Q  E   H    E S S E E   +E  Q  E +E  Q.
||-----------------|-------------------|----------------|--------------------|
||o----------------|-------------------|----------------|--------------------|
||-----------------|-------------------|----------------|--------------------|
||-----------------|-------------------|----------------|--------------------|
||o-5------------7-|-(7)-5--4-(4)-5--4-|-5------------7-|-(7)-5--4-(4)-5-----|
||--3----3-3-3-3-5-|-(5)-3--2-(2)-3--2-|-3----3-3-3-3-5-|-(5)-3--2-(2)-3-----|


  F#5          A5      G5 F#5   G5     F#5          A5      G5 F#5   G5 F#5
       PM----|                              PM----|
  H    E S S E E   +E  Q  E +E  Q.     H    E S S E E   +E  Q  E +E  Q  E
|----------------|-------------------|----------------|---------------------|
|----------------|-------------------|----------------|---------------------|
|----------------|-------------------|----------------|---------------------|
|----------------|-------------------|----------------|---------------------|
|-4------------7-|-(7)-5--4-(4)-5----|-4------------7-|-(7)-5--4-(4)-5--4---|
|-2----2-2-2-2-5-|-(5)-3--2-(2)-3----|-2----2-2-2-2-5-|-(5)-3--2-(2)-3--2---|


  G5           A5      G5 F#5   G5 F#5 G5           A5      G5 F#5   G5
       PM----|                              PM----|
  H    E S S E E   +E  Q  E +E  Q  E   H    E S S E E   +E  Q  E +E  Q.
|----------------|-------------------|----------------|--------------------|
|----------------|-------------------|----------------|--------------------|
|----------------|-------------------|----------------|--------------------|
|----------------|-------------------|----------------|--------------------|
|-5------------7-|-(7)-5--4-(4)-5--4-|-5------------7-|-(7)-5--4-(4)-5-----|
|-3----3-3-3-3-5-|-(5)-3--2-(2)-3--2-|-3----3-3-3-3-5-|-(5)-3--2-(2)-3-----|


  F#5          A5      G5 F#5   G5     F#5          A5      G5 F#5   G5 F#5
       PM----|                              PM----|
  H    E S S E E   +E  Q  E +E  Q.     H    E S S E E   +E  Q  E +E  Q  E
|----------------|-------------------|----------------|---------------------|
|----------------|-------------------|----------------|---------------------|
|----------------|-------------------|----------------|---------------------|
|----------------|-------------------|----------------|---------------------|
|-4------------7-|-(7)-5--4-(4)-5----|-4------------7-|-(7)-5--4-(4)-5--4---|
|-2----2-2-2-2-5-|-(5)-3--2-(2)-3----|-2----2-2-2-2-5-|-(5)-3--2-(2)-3--2---|


  G5
     PM--------|     PM  PM  PM------|      PM--------|     PM  PM  PM------|
  Q  E S S E E E E   E E E E E E S S E   Q  E S S E E E E   E E E E E E S S E
|------------------|-------------------|------------------|-------------------|
|------------------|-------------------|------------------|-------------------|
|------------------|-------------------|------------------|-------------------|
|------------------|-------------------|------------------|-------------------|
|-5--------------6-|---5---3-----------|-5--------------6-|---5---3-----------|
|-3--3-3-3-3-3-3---|-3---3---3-3-3-3-0-|-3--3-3-3-3-3-3---|-3---3---3-3-3-3-0-|


  F#5
     PM--------|     PM  PM  PM------|      PM--------|     PM  PM  PM------|
  Q  E S S E E E E   E E E E E E S S E   Q  E S S E E E E   E E E E E E S S E
|------------------|-------------------|------------------|-------------------|
|------------------|-------------------|------------------|-------------------|
|------------------|-------------------|------------------|-------------------|
|------------------|-------------------|------------------|-------------------|
|-4--------------5-|---4---2-----------|-4--------------5-|---4---2-----------|
|-2--2-2-2-2-2-2---|-2---2---2-2-2-2-0-|-2--2-2-2-2-2-2---|-2---2---2-2-2-2-0-|


  G5
     PM--------|     PM  PM  PM------|      PM--------|     PM  PM  PM------|
  Q  E S S E E E E   E E E E E E S S E   Q  E S S E E E E   E E E E E E S S E
|------------------|-------------------|------------------|-------------------|
|------------------|-------------------|------------------|-------------------|
|------------------|-------------------|------------------|-------------------|
|------------------|-------------------|------------------|-------------------|
|-5--------------6-|---5---3-----------|-5--------------6-|---5---3-----------|
|-3--3-3-3-3-3-3---|-3---3---3-3-3-3-0-|-3--3-3-3-3-3-3---|-3---3---3-3-3-3-0-|


  F#5
     PM--------|     PM  PM  PM------|
  Q  E S S E E E E   E E E E E E S S E
|------------------|-------------------|
|------------------|-------------------|
|------------------|-------------------|
|------------------|-------------------|
|-4--------------5-|---4---2-----------|
|-2--2-2-2-2-2-2---|-2---2---2-2-2-2-0-|


     PM--------|     PM  PM  PM------|
  Q  E S S E E E E   E E E E E E S S E
|------------------|--------------------||
|------------------|-------------------o||
|------------------|--------------------||
|------------------|--------------------||
|-4--------------5-|---4---2-----------o||
|-2--2-2-2-2-2-2---|-2---2---2-2-2-2-0--||


   Bridge
    Q=120
    Bb                                A
    Gtr IV
    Q.   E +H       Q.   E +E  Q  E   Q.   E +H       Q.   E +H
||----------------|-----------------|---------------|----------------||
||o---------------|-----------------|---------------|---------------o||
||----------------|-----------------|---------------|----------------||
||--8----7-(7)----|-8----7-(7)-8--7-|-6----7-(7)----|-6----7-(7)-----||
||o---------------|-----------------|---------------|---------------o||
||----------------|-----------------|---------------|----------------||
|
|   Gtr III
|   Q.   E +H       Q.   E +E  Q  E   Q.   E +H       Q.   E +H
||----------------|-----------------|---------------|----------------||
||o---------------|-----------------|---------------|---------------o||
||----------------|-----------------|---------------|----------------||
||----------------|-----------------|---------------|----------------||
||o-5----5-(5)----|-5----5-(5)-5--5-|-4----4-(4)----|-4----4-(4)----o||
||--6----6-(6)----|-6----6-(6)-6--6-|-5----5-(5)----|-5----5-(5)-----||


  Bb                                        A
  Gtr V
   Q.    E  +H        Q.    E  +E   Q   E   Q.    E  +H       Q.    E  +H
|------------------|----------------------|-----------------|-----------------|
|-11----10-(10)----|-11----10-(10)-11--10-|-9----10-(10)----|-9----10-(10)----|
|------------------|----------------------|-----------------|-----------------|
|------------------|----------------------|-----------------|-----------------|
|------------------|----------------------|-----------------|-----------------|
|------------------|----------------------|-----------------|-----------------|
|
| Gtr IV
|  Q.    E  +H        Q.    E  +E   Q   E   Q.    E  +H       Q.    E  +H
|------------------|----------------------|-----------------|-----------------|
|------------------|----------------------|-----------------|-----------------|
|------------------|----------------------|-----------------|-----------------|
|--8-----7--(7)----|--8-----7--(7)--8---7-|-6-----7--(7)----|-6-----7--(7)----|
|------------------|----------------------|-----------------|-----------------|
|------------------|----------------------|-----------------|-----------------|
|
| Gtr III
|  Q.    E  +H        Q.    E  +E   Q   E   Q.    E  +H       Q.    E  +H
|------------------|----------------------|-----------------|-----------------|
|------------------|----------------------|-----------------|-----------------|
|------------------|----------------------|-----------------|-----------------|
|------------------|----------------------|-----------------|-----------------|
|--5-----5--(5)----|--5-----5--(5)--5---5-|-4-----4--(4)----|-4-----4--(4)----|
|--6-----6--(6)----|--6-----6--(6)--6---6-|-5-----5--(5)----|-5-----5--(5)----|


  Bb
   Q.    E  +H        Q.    E  +E   Q   E
|-13----12-(12)----|-13----12-(12)-13--12-|
|-11----10-(10)----|-11----10-(10)-11--10-|
|------------------|----------------------|
|------------------|----------------------|
|------------------|----------------------|
|------------------|----------------------|
|
|  Q.    E  +H        Q.    E  +E   Q   E
|------------------|----------------------|
|------------------|----------------------|
|------------------|----------------------|
|--8-----7--(7)----|--8-----7--(7)--8---7-|
|------------------|----------------------|
|------------------|----------------------|
|
|  Q.    E  +H        Q.    E  +E   Q   E
|------------------|----------------------|
|------------------|----------------------|
|------------------|----------------------|
|------------------|----------------------|
|--5-----5--(5)----|--5-----5--(5)--5---5-|
|--6-----6--(6)----|--6-----6--(6)--6---6-|


  A
   Q.    E  +H        Q.    E  +H
|-11----12-(12)----|-11----12-(12)----||
|--9----10-(10)----|--9----10-(10)----||
|------------------|------------------||
|------------------|------------------||
|------------------|------------------||
|------------------|------------------||
|
|  Q.    E  +H        Q.    E  +H
|------------------|------------------||
|------------------|------------------||
|------------------|------------------||
|--6-----7--(7)----|--6-----7--(7)----||
|------------------|------------------||
|------------------|------------------||
|
|  Q.    E  +H        Q.    E  +H
|------------------|------------------||
|------------------|------------------||
|------------------|------------------||
|------------------|------------------||
|--4-----4--(4)----|--4-----4--(4)----||
|--5-----5--(5)----|--5-----5--(5)----||


   The Sixth Circle
    Q=128
    Bb/D        D5                    Bb/D        D5      Bb/D    D5
    Gtrs III, IV
    PM--------------------------------------------------------------|
    S S S S S S S S S S S S S S S S   S S S S S S S S S S S S S S S S
||----------------------------------|----------------------------------|
||o---------------------------------|----------------------------------|
||----------------------------------|----------------------------------|
||--8-8-8-8-8-8-7-7-7-7-7-7-7-7-7-7-|-8-8-8-8-8-8-7-7-7-7-8-8-8-8-7-7--|
||o-5-5-5-5-5-5-5-5-5-5-5-5-5-5-5-5-|-5-5-5-5-5-5-5-5-5-5-5-5-5-5-5-5--|
||----------------------------------|----------------------------------|


  C#5         A/C#                  C#5         A/C#
  PM--------------------------------------------------------------|
  S S S S S S S S S S S S S S S S   S S S S S S S S S S S S S S S S  4x
|---------------------------------|----------------------------------||
|---------------------------------|---------------------------------o||
|---------------------------------|----------------------------------||
|-6-6-6-6-6-6-7-7-7-7-7-7-7-7-7-7-|-6-6-6-6-6-6-7-7-7-7-7-7-7-7-7-7--||
|-4-4-4-4-4-4-4-4-4-4-4-4-4-4-4-4-|-4-4-4-4-4-4-4-4-4-4-4-4-4-4-4-4-o||
|---------------------------------|----------------------------------||


  C5/D5/B5/F#  C5/D5/B5/F#  C5/D5/B5/C5/G E5
                                             PM--|    PM--|
                                             |-3-|    |-3-|
  Q  Q  H      Q  Q  H      Q  Q  Q  Q    Q  E E E Q  E E E
|------------|------------|-------------|---------------------|
|------------|------------|-------------|---------------------|
|------------|------------|-------------|---------------------|
|-5--7--4----|-5--7--4----|-5--7--4--5--|-2--------2----------|
|-3--5--2----|-3--5--2----|-3--5--2--3--|-2--------2----------|
|-3--5--2----|-3--5--2----|-3--5--2--3--|-0--0-0-1-0--0-0-0---|


  C5/D5/B5/F#  C5/D5/B5/F#  C5/D5/B5/C5/G E5
                                             PM--|
                                             |-3-|
  Q  Q  H      Q  Q  H      Q  Q  Q  Q    Q  E E E H      +W
|------------|------------|-------------|---------------|--------||
|------------|------------|-------------|---------------|--------||
|------------|------------|-------------|---------------|--------||
|-5--7--4----|-5--7--4----|-5--7--4--5--|-2--------2----|-(2)----||
|-3--5--2----|-3--5--2----|-3--5--2--3--|-2--------2----|-(2)----||
|-3--5--2----|-3--5--2----|-3--5--2--3--|-0--0-0-1-0----|-(0)----||


 Interlude
  Q=104
             N.C.
 3/4
  Gtrs III, IV
              >
  +H.        +H.               W               W               W
|----------|-----------------|---------------|--------------|--------------|
|----------|-----------------|---------------|--------------|--------------|
|----------|-----------------|---------------|--------------|--------------|
|-(2)------|-(2)-------------|---------------|--------------|--------------|
|-(2)------|-(2)-------------|---------------|--------------|--------------|
|-(0)------|-(0)-------------|---------------|--------------|--------------|
|
| Gtr I
|  W          E. S +E  E E E   Q  E. S +E  E   E  E Q  E. S   +E  E E E Q
|----------|-----------------|---------------|--------------|--------------|
|----------|-----------------|---------------|--------------|--------------|
|----------|-----------------|---------------|--------------|--------------|
|----------|-----------------|---------------|--------------|--------------|
|----------|--7--7-(7)-7-8-5-|-7--7--7-(7)-7-|-8-10-7--7--7-|-(7)-7-8-5-7--|
|----------|-----------------|---------------|--------------|--------------|


 4/4                      3/4
  Gtrs III, IV
   W                        W                  W
|------------------------|-----------------|------------------|
|------------------------|-----------------|------------------|
|------------------------|-----------------|------------------|
|------------------------|-----------------|------------------|
|------------------------|-----------------|------------------|
|------------------------|-----------------|------------------|
|
| Gtr V
|  E.  S  +E   E  +H        H.                +H.
|-12----------14-(14)----|-12--------------|-(12)-------------|
|-----15-(15)------------|-----------------|------------------|
|------------------------|-----------------|------------------|
|------------------------|-----------------|------------------|
|------------------------|-----------------|------------------|
|------------------------|-----------------|------------------|
|
| Gtr I
|  E.  S  +E   E  +H        E. S +E  E E E     Q   E. S +E  E
|------------------------|-----------------|------------------|
|------------------------|-----------------|------------------|
|------------------------|-----------------|------------------|
|------------------------|-----------------|------------------|
|-10---9--(9)--5--(5)----|--7--7-(7)-7-8-5-|---7---7--7-(7)-7-|
|------------------------|-----------------|------------------|


                                  4/4
    W                W              H               Q   Q
|-----------------|--------------|---------------------------||
|-----------------|--------------|---------------------------||
|-----------------|--------------|---------------------------||
|-----------------|--------------|---------------------------||
|-----------------|--------------|---------------------------||
|-----------------|--------------|----------------------x\---||
|
|   >
|  +H.               W              E.  S  +E   E  +H
|-(12)------------|--------------|-12----------14-(14)-------||
|-----------------|--------------|-----15-(15)---------------||
|-----------------|--------------|---------------------------||
|-----------------|--------------|---------------------------||
|-----------------|--------------|---------------------------||
|-----------------|--------------|---------------------------||
|
|   E   E Q  E. S   +E  E E E Q     E.  S  +E   E  +H
|-----------------|--------------|---------------------------||
|-----------------|--------------|---------------------------||
|-----------------|--------------|---------------------------||
|-----------------|--------------|---------------------------||
|---8--10-7--7--7-|-(7)-7-8-5-7--|-10---9--(9)--5--(5)-------||
|-----------------|--------------|---------------------------||


 Bridge
  Q=210
  E5              F5 D5   E5                        F5 G5   E5
 6/4                     4/4
  Gtr IV
  E Q   E Q   E E Q  Q    E E Q   E Q   E   Q   E E Q  Q    E E Q   E Q   E
|-----------------------|-----------------|---------------|-----------------|
|-----------------------|-----------------|---------------|-----------------|
|-----------------------|-----------------|---------------|-----------------|
|--------------------7--|-----------------|---------------|-----------------|
|-2-----2-----2-2-3--5--|-2-------2-----2-|-----2-2-3--5--|-2-------2-----2-|
|-0-----0-----0-0-1-----|-0-------0-----0-|-----0-0-1--3--|-0-------0-----0-|
|
| Gtr III
|   PM|   PM|               PM--|   PM|     PM|               PM--|   PM|
| E E E E E E E E Q  Q    E E E E E E E E   E E E E Q  Q    E E E E E E E E
|-----------------------|-----------------|---------------|-----------------|
|-----------------------|-----------------|---------------|-----------------|
|-----------------------|-----------------|---------------|-----------------|
|--------------------7--|-----------------|---------------|-----------------|
|-2-----2-----2-2-3--5--|-2-------2-----2-|-----2-2-3--5--|-2-------2-----2-|
|-0-0-0-0-0-0-0-0-1-----|-0-0-0-0-0-0-0-0-|-0-0-0-0-1--3--|-0-0-0-0-0-0-0-0-|


          F5 D5   E5      G5    F#5     D5
                                   6/4
  Q   E E Q  Q    E E Q   E E E E   E E Q  +H.      +Q
|---------------|-----------------|------------------------|
|---------------|-----------------|------------------------|
|---------------|-----------------|------------------------|
|------------7--|-----------------|-----7--(7)------(7)\---|
|-----2-2-3--5--|-2-------5-5-5-4-|-4-4-5--(5)------(5)\---|
|-----0-0-1-----|-0-------3-3-3-2-|-2-2--------------------|
|
| PM|               PM--|
| E E E E Q  Q    E E E E E E E E   E E Q  +H.      +Q
|---------------|-----------------|------------------------|
|---------------|-----------------|------------------------|
|---------------|-----------------|------------------------|
|------------7--|-----------------|-----7--(7)------(7)\---|
|-----2-2-3--5--|-2-------5-5-5-4-|-4-4-5--(5)------(5)\---|
|-0-0-0-0-1-----|-0-0-0-0-3-3-3-2-|-2-2--------------------|


    E5                N.C.      E5                          N.C.
                               4/4
    Gtrs III, IV
      PM|   PM|   PM--------|     PM--|   PM|     PM--------------|
    E E E E E E E S S E E E E   E E E E E E E E   E E E S S E E E E
||----------------------------|-----------------|--------------------|
||o---------------------------|-----------------|--------------------|
||----------------------------|-----------------|--------------------|
||----------------------------|-----------------|--------------------|
||o-2-----2-----2---------5-5-|-2-------2-----2-|--------------------|
||--0-0-0-0-0-0-0-0-0-1-1-----|-0-0-0-0-0-0-0-0-|-0-0-0-0-0-1-1-3-3--|


  E5                          N.C.
    PM--|   PM|     PM--------------|
  E E E E E E E E   E E E S S E E E E
|-----------------|-------------------|
|-----------------|-------------------|
|-----------------|-------------------|
|-----------------|-------------------|
|-2-------2-----2-|---------------5-5-|
|-0-0-0-0-0-0-0-0-|-0-0-0-0-0-1-1-----|


  E5      G5    F#5     D5
                   6/4
    PM--|
  E E E E E E E E   E E Q  +H.       Q
|-----------------|-----------------------||
|-----------------|----------------------o||
|-----------------|-----------------------||
|-----------------|-----7--(7)------------||
|-2-------5-5-5-4-|-4-4-5--(5)-----------o||
|-0-0-0-0-3-3-3-2-|-2-2-------------10\---||


  Q=210
  N.C.
 4/4
  Gtr IV
    PM|   PM|   PM    PM|   PM|   PM    PM|   PM|   PM    PM|
  E E E E E E E E   E E E E E E E E   E E E E E E E E   E E E E Q     Q
|-----------------|-----------------|-----------------|---------------------|
|-----------------|-----------------|-----------------|---------------------|
|-----------------|-----------------|-----------------|---------------------|
|-----------------|-----------------|-----------------|---------------------|
|-2-----2-----2---|-3-----3-----3---|-0-----0-----0---|-2-----2-------------|
|---0-0---0-0---0-|---0-0---0-0---0-|---0-0---0-0---0-|---0-0---x\---/x\----|
|
| Gtr III
|   PM|   PM|   PM    PM|   PM|   PM    PM|   PM|   PM    PM|   PM-|     PM
| E E E E E E E E   E E E E E E E E   E E E E E E E E   E E E E E  E  E  E
|-----------------|-----------------|-----------------|---------------------|
|-----------------|-----------------|-----------------|---------------------|
|-----------------|-----------------|-----------------|---------------------|
|-----------------|-----------------|-----------------|---------------------|
|-2-----2-----2---|-3-----3-----3---|-0-----0-----0---|-2-----2-------2-----|
|---0-0---0-0---0-|---0-0---0-0---0-|---0-0---0-0---0-|---0-0---0--0-----0--|


  Bb5
  W                 +W                  W                 +W
|-----------------|-------------------|-----------------|-------------------|
|-----------------|-------------------|-----------------|-------------------|
|-----------------|-------------------|-----------------|-------------------|
|-----------------|-------------------|-----------------|-------------------|
|-8---------------|-(8)---------------|-8---------------|-(8)---------------|
|-6---------------|-(6)---------------|-6---------------|-(6)---------------|
|
| PM|   PM|   PM|       PM|   PM|       PM|   PM|   PM|       PM|   PM|
| E E E E E E E E    E  E E E E E E E   E E E E E E E E    E  E E E E E E E
|-----------------|-------------------|-----------------|-------------------|
|-----------------|-------------------|-----------------|-------------------|
|-----------------|-------------------|-----------------|-------------------|
|-----------------|--7----------------|-----------------|--7----------------|
|-----8-----8-----|---------8-----7h8-|-----8-----8-----|---------8-----7h8-|
|-6-6---6-6---6-6-|-----6-6---6-6-----|-6-6---6-6---6-6-|-----6-6---6-6-----|


  N.C.
  PM|   PM|   PM|     PM|   PM|   PM----|   PM|   PM|     PM|
  E E E E E E E E   E E E E E E E E   E E E E E E E E   E E E E Q     Q
|-----------------|-----------------|-----------------|--------------------|
|-----------------|-----------------|-----------------|--------------------|
|-----------------|-----------------|-----------------|--------------------|
|-----------------|-----------------|-----------------|--------------------|
|-----2-----2-----|-3-----3-----3---|-----0-----0-----|-2-----2------------|
|-0-0---0-0---0-0-|---0-0---0-0---0-|-0-0---0-0---0-0-|---0-0---x\---/x\---|
|
| PM|   PM|   PM|     PM|   PM|   PM----|   PM|   PM|     PM|   PM-|     PM
| E E E E E E E E   E E E E E E E E   E E E E E E E E   E E E E E  E  E  E
|-----------------|-----------------|-----------------|--------------------|
|-----------------|-----------------|-----------------|--------------------|
|-----------------|-----------------|-----------------|--------------------|
|-----------------|-----------------|-----------------|--------------------|
|-----2-----2-----|-3-----3-----3---|-----0-----0-----|-2-----2-------2----|
|-0-0---0-0---0-0-|---0-0---0-0---0-|-0-0---0-0---0-0-|---0-0---0--0-----0-|


  Bb5
  W                 +W                  W                 +W
|-----------------|-------------------|-----------------|-------------------|
|-----------------|-------------------|-----------------|-------------------|
|-----------------|-------------------|-----------------|-------------------|
|-----------------|-------------------|-----------------|-------------------|
|-8---------------|-(8)---------------|-8---------------|-(8)---------------|
|-6---------------|-(6)---------------|-6---------------|-(6)---------------|
|
| PM|   PM|   PM|       PM|   PM|       PM|   PM|   PM|       PM|   PM|
| E E E E E E E E    E  E E E E E E E   E E E E E E E E    E  E E E E E E E
|-----------------|-------------------|-----------------|-------------------|
|-----------------|-------------------|-----------------|-------------------|
|-----------------|-------------------|-----------------|-------------------|
|-----------------|--7----------------|-----------------|--7----------------|
|-----8-----8-----|---------8-----7h8-|-----8-----8-----|---------8-----7h8-|
|-6-6---6-6---6-6-|-----6-6---6-6-----|-6-6---6-6---6-6-|-----6-6---6-6-----|


    Q=214
    D5                  Eb5         C5        D5
    Gtrs III, IV
      PM----|   PM----|   PM------|   PM----|   PM|   PM|
    E S S S S E S S S S E S S   S S E S S S S E S S E S S
||----------------------------|---------------------------|
||o---------------------------|---------------------------|
||----------------------------|---------------------------|
||--7---------7---------8-----|-----5---------7-----7-----|
||o-5-5-5-5-5-5-5-5-5-5-6-6-6-|-6-6-3-3-3-3-3-5-5-5-5-5-5-|
||----------------------------|---------------------------|


                      Eb5         C5        D5
    PM----|   PM----|   PM------|   PM----|   PM|   PM|
  E S S S S E S S S S E S S   S S E S S S S E S S E S S
|---------------------------|------------------------------|
|---------------------------|------------------------------|
|---------------------------|------------------------------|
|-7---------7---------8-----|-----5---------7-----7--------|
|-5-5-5-5-5-5-5-5-5-5-6-6-6-|-6-6-3-3-3-3-3-5-5-5-5-5-5----|
|---------------------------|------------------------------|


  N.C.
  Gtr IV
  PM----------------------------------|
  E E E E  E E E E   E E E E  E E E   E    4x
|------------------|-----------------------||
|------------------|----------------------o||
|------------------|-----------------------||
|-7-9-7-9-10-9-7-9-|-7-9-7-9-10-9-7---9----||
|------------------|----------------------o||
|------------------|-----------------------||
|
| Gtr III
|                                 |--3--|
| E E E E  E E E E   E E E E  E E E E   E  4x
|------------------|-----------------------||
|------------------|----------------------o||
|------------------|-----------------------||
|-4-5-4-5--7-5-4-5-|-4-5-4-5--7-5-4s5p==0--||
|------------------|----------------------o||
|------------------|-----------------------||


   The Seventh Circle
    Q=132
    Dmadd9
    Gtr I
    E E E E E E E E    E  E E E E E E E
||----------0-------|-----------0-------|
||o-------6---6-----|---------6---6-----|
||------7-------7---|-------7-------7---|
||----7-----------7-|-----7-----------7-|
||o-5---------------|--5----------------|
||------------------|-------------------|
|
|   Gtr V
|   W                 +W
||------------------|-------------------|
||o-----------------|-------------------|
||------------------|-------------------|
||--7---------------|-(7)---------------|
||o-5---------------|-(5)---------------|
||------------------|-------------------|


  Ebm
  E E E E E E E E    E  E E E E E E E   4x
|---------6-------|-----------6---------||
|-------7---7-----|---------7---7------o||
|-----8-------8---|-------8-------8-----||
|---8-----------8-|-----8-----------8---||
|-6---------------|--6-----------------o||
|-----------------|---------------------||
|
| W                 +W                  4x
|-----------------|---------------------||
|-----------------|--------------------o||
|-----------------|---------------------||
|-8---------------|-(8)-----------------||
|-6---------------|-(6)----------------o||
|-----------------|---------------------||


    Cm
    E E E E E E E E    E  E E E E E E E
||----------3-------|-----------3-------|
||o-------4---4-----|---------4---4-----|
||------5-------5---|-------5-------5---|
||----5-----------5-|-----5-----------5-|
||o-3---------------|--3----------------|
||------------------|-------------------|
|
|   W                 +W
||------------------|-------------------|
||o-----------------|-------------------|
||------------------|-------------------|
||--5---------------|-(5)---------------|
||o-3---------------|-(3)---------------|
||------------------|-------------------|


  Bm
  E E E E E E E E    E  E E E E E E E
|---------2-------|-----------2---------||
|-------3---3-----|---------3---3------o||
|-----4-------4---|-------4-------4-----||
|---4-----------4-|-----4-----------4---||
|-2---------------|--2-----------------o||
|-----------------|---------------------||
|
| W                 +W
|-----------------|---------------------||
|-----------------|--------------------o||
|-----------------|---------------------||
|-4---------------|-(4)-----------------||
|-2---------------|-(2)----------------o||
|-----------------|---------------------||


    Em
    E E E E E E E E    E  E E E E E E E
||----------7-------|-----------7-------|
||o-------8---8-----|---------8---8-----|
||------9-------9---|-------9-------9---|
||----9-----------9-|-----9-----------9-|
||o-7---------------|--7----------------|
||------------------|-------------------|
|
|   W                 +W
||------------------|-------------------|
||o-----------------|-------------------|
||------------------|-------------------|
||--9---------------|-(9)---------------|
||o-7---------------|-(7)---------------|
||------------------|-------------------|


  Fm
   E  E  E E E E  E  E     E   E  E E E E  E  E   4x
|------------8---------|--------------8-----------||
|----------9---9-------|------------9---9--------o||
|-------10-------10----|---------10-------10------||
|----10-------------10-|------10-------------10---||
|--8-------------------|---8---------------------o||
|----------------------|--------------------------||
|
|  W                      +W                      4x
|----------------------|--------------------------||
|----------------------|-------------------------o||
|----------------------|--------------------------||
|-10-------------------|-(10)---------------------||
|--8-------------------|--(8)--------------------o||
|----------------------|--------------------------||


   Bridge
    Q=156
    N.C.(E)
    Gtrs III, IV
    PM-------------------------------------------------
    E S S E E S S E E S S   E E S S E S S S S S S S S
||------------------------|---------------------------|
||o-----------------------|---------------------------|
||------------------------|---------------------------|
||------------------------|---------------------------|
||o-----------------------|---------------------------|
||--0-0-0-0-0-0-0-0-0-0-0-|-0-0-0-0-0-0-0-0-0-0-0-0-0-|


 -------------------------------------------------|
  E S S E E S S E E S S   E E S S E S S S S S S S S     8x
|-----------------------|-------------------------------||
|-----------------------|------------------------------o||
|-----------------------|-------------------------------||
|-----------------------|-------------------------------||
|-----------------------|------------------------------o||
|-0-0-0-0-0-0-0-0-0-0-0-|-0-0-0-0-0-0-0-0-0-0-0-0-0-----||


   The Eigth Circle
    Q=164
    N.C.
    PM-----------------------------------------
    E S S E E S S E E S S   E E S S E E E E E
||------------------------|-------------------|
||o-----------------------|-------------------|
||------------------------|-------------------|
||------------------------|-------------------|
||o-3-------3-------3-----|---3-------3---3---|
||----1-1-1---1-1-1---1-1-|-1---1-1-1---1---1-|


 -----------------------------------------|
  E S S E E S S E E S S   E E S S E E E E E
|-----------------------|-------------------|
|-----------------------|-------------------|
|-----------------------|-------------------|
|-----------------------|-------------------|
|-3-------3-------3-----|---3-------3---3---|
|---1-1-1---1-1-1---1-1-|-1---1-1-1---1---1-|


  PM-----------------------------------------
  E S S E E S S E E S S   E E S S E E E E E
|-----------------------|-------------------|
|-----------------------|-------------------|
|-----------------------|-------------------|
|-----------------------|-------------------|
|-4-------4-------4-----|---4-------4---4---|
|---1-1-1---1-1-1---1-1-|-1---1-1-1---1---1-|


 -----------------------------------------|
  E S S E E S S E E S S   E E S S E E E E E
|-----------------------|--------------------|
|-----------------------|--------------------|
|-----------------------|--------------------|
|-----------------------|--------------------|
|-4-------4-------4-----|---4-------4---4----|
|---1-1-1---1-1-1---1-1-|-1---1-1-1---1---1--|


  PM-----------------------------------------
  E S S E E S S E E S S   E E S S E E E E E
|-----------------------|-------------------|
|-----------------------|-------------------|
|-----------------------|-------------------|
|-----------------------|-------------------|
|-2-------2-------2-----|---2-------2---2---|
|---0-0-0---0-0-0---0-0-|-0---0-0-0---0---0-|


 -------------------------------------------|
  E S S E E S S E E S S   E E S S E E E E S S
|-----------------------|---------------------|
|-----------------------|---------------------|
|-----------------------|---------------------|
|-----------------------|---------------------|
|-2-------2-------2-----|---2-------2---2-----|
|---0-0-0---0-0-0---0-0-|-0---0-0-0---0---0-0-|


                                           The Ninth Circle
                                        Q=169
                                            F5    E5                C/E   E5C/E
  PM------------------------------|           PM    PM----|     PM|   PM|
  E E E E E E E E   E E E E E E E E  3x     E E E E E E E E   E E E E E E E E
|-----------------|------------------||-||------------------|------------------|
|-----------------|-----------------o||-||o-----------------|------------------|
|-----------------|------------------||-||------------------|------------------|
|-----------------|------------------||-||------------------|------------------|
|---3---3---2---2-|---3---3---2---2-o||-||o-3---3-2---------|-2-----3-----2-3--|
|-4---4---3---3---|-4---4---3---3----||-||--1-0-1-0-0-0-0-0-|-0-0-0-0-0-0-0-0--|


  F5    E5          C/E   E5              F5    E5
    PM    PM----|     PM        PM------------|
  E E E E E E E E   E E E E +E  E E E  8x E E E E +H
|-----------------|--------------------||----------------||
|-----------------|-------------------o||----------------||
|-----------------|--------------------||----------------||
|-----------------|--------------------||----------------||
|-3---3-2---------|-3---3-2-(2)-------o||-3-3-3-2-(2)----||
|-1-0-1-0-0-0-0-0-|-0-0-0-0-(0)-0-0-0--||-1-1-1-0-(0)----||


    N.C.                              E5            Bb5
    PM------------------------------|       PM----|
    E S S E E S S S S S S S S   E E E E +E  S S S S E
||----------------------------|-----------------------|
||o---------------------------|-----------------------|
||----------------------------|-----------------------|
||----------------------------|---------------------3-|
||o---------------------------|-------2-(2)---------1-|
||--0-0-0-0-0-0-0-0-0-0-0-0-0-|-1-0-1-0-(0)-0-0-0-0---|


                            N.C.  E5
      PM------------------------|
  +E  S S E E S S E S S E   E E E E +H      3x
|-------------------------|-----------------||
|-------------------------|----------------o||
|-------------------------|-----------------||
|-(3)---------------------|-----------------||
|-(1)-1-1-1-1-1-1-1-1-1-1-|-------2-(2)----o||
|-------------------------|-1-0-1-0-(0)-----||


  N.C.
  PM-------------------------
  E S S E E S S S S S S S S
|---------------------------|
|---------------------------|
|---------------------------|
|---------------------------|
|---------------------------|
|-0-0-0-0-0-0-0-0-0-0-0-0-0-|


        E5            Bb5
 -----|       PM----|         PM----------------|
  E E E E +E  S S S S E   +E  S S E E S S E S S E
|-----------------------|--------------------------||
|-----------------------|--------------------------||
|-----------------------|--------------------------||
|---------------------3-|-(3)----------------------||
|-------2-(2)---------1-|-(1)-1-1-1-1-1-1-1-1-1-1--||
|-1-0-1-0-(0)-0-0-0-0---|--------------------------||


   Outro
    N.C.
    PM-------------------------------------------
    E S S E E S S E E S S   E E S S E E S S E E
||------------------------|---------------------|
||o-----------------------|---------------------|
||------------------------|---------------------|
||------------------------|---------------------|
||o-2-------0-------2-----|---0-------2-0-0-0-2-|
||----0-0-0---0-0-0---0-0-|-0---0-0-0-----------|


 -----------------------------------------|
  E S S E E S S E E S S   E E S S E E E E E
|-----------------------|----------------------||
|-----------------------|---------------------o||
|-----------------------|----------------------||
|-----------------------|----------------------||
|-3-------0-------3-----|---0-------3---3-----o||
|---0-0-0---0-0-0---0-0-|-0---0-0-0---0---0----||


    Gtr VI
     E  E    E  E  E    E  E  E      E  E  E    E  E  E    E  E
||--24------24-26------24-27------|-24-29------24-27------26----|
||o----24---------24---------24---|-------24---------24------24-|
||--------------------------------|-----------------------------|
||--------------------------------|-----------------------------|
||o-------------------------------|-----------------------------|
||--------------------------------|-----------------------------|
|
|   Gtrs III, IV
|    PM----------------------------------------------------------
|    E  S S  E  E  S S  E  E  S S    E  E  S S  E  E  S S  E  E
||--------------------------------|-----------------------------|
||o-------------------------------|-----------------------------|
||--------------------------------|-----------------------------|
||--------------------------------|-----------------------------|
||o--2----------0----------2------|-----0----------2--0-0--0--2-|
||------0-0--0-----0-0--0-----0-0-|--0-----0-0--0---------------|


   E  E    E  E  E    E  E  E      E  E  E    E  E  E  E  E    7x
|-24------24-26------24-27------|-24-29------24-27----26-------||
|----25---------25---------25---|-------25---------25----25---o||
|-------------------------------|------------------------------||
|-------------------------------|------------------------------||
|-------------------------------|-----------------------------o||
|-------------------------------|------------------------------||
|
|--------------------------------------------------------|
|  E  S S  E  E  S S  E  E  S S    E  E  S S  E  E  E  E  E    7x
|-------------------------------|------------------------------||
|-------------------------------|-----------------------------o||
|-------------------------------|------------------------------||
|-------------------------------|------------------------------||
|--3----------0----------3------|-----0----------3-----3------o||
|-----0-0--0-----0-0--0-----0-0-|--0-----0-0--0-----0-----0----||



Duration Legend
---------------
W - whole; H - half; Q - quarter; E - 8th; S - 16th; T - 32nd; X - 64th; a - acciaccatura
+ - note tied to previous; . - note dotted; .. - note double dotted
Uncapitalized letters represent notes that are staccato (1/2 duration)
Irregular groupings are notated above the duration line
Duration letters will always appear directly above the note/fret number it represents the
duration for.  Duration letters with no fret number below them represent rests.  Multi-
bar rests are notated in the form Wxn, where n is the number of bars to rest for.  Low
melody durations appear below the staff

Tablature Legend
----------------
 h   - hammer-on
 p   - pull-off
 b   - bend
 pb  - pre-bend
 r   - bend release (if no number after the r, then release immediately)
 /\  - slide into or out of (from/to "nowhere")
 s   - legato slide
 S   - shift slide
 - natural harmonic
[n]  - artificial harmonic
n(n) - tapped harmonic
 ~   - vibrato
 tr  - trill
 T   - tap
 TP  - trem. picking
 PM  - palm muting
\n/  - tremolo bar dip; n = amount to dip
 \n  - tremolo bar down
 n/  - tremolo bar up
/n\  - tremolo bar inverted dip
 =   - hold bend; also acts as connecting device for hammers/pulls
 <> - volume swell (louder/softer)
 x   - on rhythm slash represents muted slash
 o   - on rhythm slash represents single note slash

Misc Legend
-----------
 |  - bar
||  - double bar
||o - repeat start
o|| - repeat end
*|  - double bar (ending)
 :  - bar (freetime)
 $  - Segno
 &  - Coda
Tempo markers -  = BPM(8/16=s8/s16), where s8 = swing 8ths, s16 = swing 16ths


            
            
Suggest correction
Creating personal tab
Creating personal tab
You can edit any tab online and save it as your Personal.

You can edit, replace or remove any tab part or add personal notes – all changes will be seen only by you.

Personal tabs can be accessed anytime from any device, even offline.
Learn more »
Give kudos to tab author, rate the tab!
1 2 3 4 5
comments
print report bad tab
guest
You may want to rate the tab now too:
select rating
Wanna post a correction for this tab? Suggest correction