Oops, an error
Loading. Please wait.

Dark Saga album tab

version 1
version 1

Album

Whole song

4,846 views 12 this week
no commentswrite comment
1 2 3 4 5
2 more votes to show rating
add to favorites
×
Save as Personal and add changes to this tab that will be seen only by you. Learn more ›
×
You can save this tab as Personal to edit and correct it or add notes. All changes will be seen only by you. Learn more »
launch autoscroll
font size
0
reset
how to read this tab
guitar tuner
edit
Autoscroll
slow
fast
+/-
esc
set tempo
stop
Author
Difficulty
Band - Iced Earth
Album - Dark Saga

Track Listings:
1. Dark Saga
2. I Died For You
3. Violate
4. The Hunter
5. The Last Laugh
6. Depths Of Hell
7. Vengeance Is Mine
8. Scarred
9. Slave To The Dark
10. A Question Of Heaven

------------------------------------------------

1. DARK SAGA
Tuning: Eb

Riff 1 (Clean w/ delay)    x2
eb|-------------------------|
Bb|-------------------------|
Gb|-------0------------0----|
Db|-----4----------------4--|
Ab|---2--------------2------|
Eb|-0--------------0--------|
   "The deal was rigged..."
eb|-------------------------|
Bb|-------------------------|
Gb|-------0-------0---------|
Db|-----0-------0-----------|
Ab|---2-------0-------0-----|
Eb|-3-------2-------1---3-1-|


Riff 2 (Distortion)
eb|---------------------------------|
Bb|---------------------------------|
Gb|---------------------------------|
Db|---------------------------------|
Ab|-2-2-2-2-2-2-2-3-2-2-2-2-2-2-3-2-|
Eb|-0-0-0-0-0-0-0-0-0-0-0-0-0-0-0-0-|
      * * * * *     * * * * * *
   "An empty soul..."
eb|---------------------------------|
Bb|---------------------------------|
Gb|---------------------------------|
Db|-------------------------5-5-4-4-|
Ab|-2-2-2-2-2-2-2-3-2-2-2-2-5-5-4-4-|
Eb|-0-0-0-0-0-0-0-0-0-0-0-0-3-3-2-2-|
    * * * * * *     * * * *
   "...alone and confused..."


Riff 2a
eb|---------------------------------|
Bb|---------------------------------|
Gb|---------------------------------|
Db|---------------------------------|
Ab|-2-2-2-2-2-2-2-3-2-2-2-2-2-2-3-2-|
Eb|-0-0-0-0-0-0-0-0-0-0-0-0-0-0-0-0-|
      * * * * *     * * * * * *       
     "Images flash..."
eb|---------------------------------|
Bb|---------------------------------|
Gb|---------------------------------|
Db|-------------------------5-5-4---|
Ab|-2-2-2-2-2-2-2-3-2-2-2-2-5-5-4---|
Eb|-0-0-0-0-0-0-0-0-0-0-0-0-3-3-2-0-|
    * * * * * *     * * * *       *
   "...he took my life..."


Riff 3
eb|-------------------------------|
Bb|-------------------------------|
Gb|-------------------------------|
Db|-------------------------9--9\-|
Ab|-3--3----------2--2------7--7\-|
Eb|-1--1--111-3-0-0--0-0000-------|
          *** * *      ****
   "I cheated myself..."
eb|---------------------------------|
Bb|---------------------------------|
Gb|---------------------------------|
Db|---------------------------------|
Ab|-3--3----------2--2------2--2----|
Eb|-1--1--111-3-0-0--0-0000-0--0--0-|
          *** * *      ****       *
   "Love, unconditional..."


Play Riff 2    "Fight, ..."
Play Riff 2a   "You must accept..."
Play Riff 3    "I cheated myself..."


Play Riff 1    Solo Rhythm

Solo
eb|------------------------------------------------------|
Bb|------/12--13-12~----(12)\-------/12--13-10~----(10)\-|
Gb|------------------------------------------------------|
Db|-9-10-----------------------9-10----------------------|
Ab|------------------------------------------------------|
Eb|------------------------------------------------------|

eb|---------------------------------------|
Bb|-------/12--13-------------------15b17-|
Gb|---------------12~--------(12)\--------|
Db|-9-10----------------------------------|
Ab|---------------------------------------|
Eb|---------------------------------------|

eb|----------------------------------------------------------|
Bb|-15b17r15-13-12-13-13~--12h13-10~----12-13----------------|
Gb|-------------------------------------------12----(12)p11~-|
Db|----------------------------------------------------------|
Ab|----------------------------------------------------------|
Eb|----------------------------------------------------------|

End Solo


Riff 1a
Guitar 1 (Clean w/ delay)  x2
eb|-------------------------|
Bb|-------------------------|
Gb|-------0------------0----|
Db|-----4----------------4--|
Ab|---2--------------2------|
Eb|-0--------------0--------|
   "I know there's goodness..."
eb|-------------------------|
Bb|-------------------------|
Gb|-------0-------0---------|
Db|-----0-------0-----------|
Ab|---2-------0-------0-----|
Eb|-3-------2-------1---3-1-|
   "...slave..."

Guitar 2 (Distortion, comes in at end)
eb|-----------------------------|
Bb|-----------------------------|
Gb|-----------------------------|
Db|-5---------4---------3-------|
Ab|-5-5-5-5-5-4-4-4-4-4-3-3-5-3-|
Eb|-3-3-3-3-3-2-2-2-2-2-1-1-3-1-|
      * * * *   * * * *   * * *
   "...slave..."


Play Riff 2   "No, I was betrayed..."
Play Riff 2a  "I'll follow my heart..."
Play Riff 3   "I cheated myself..."


Riff 1a
Guitar 1 (Clean)           x2
eb|-------------------------|
Bb|-------------------------|
Gb|-------0------------0----|
Db|-----4----------------4--|
Ab|---2--------------2------|
Eb|-0--------------0--------|

Guitar 2 (Distortion)
eb|------------------------|
Bb|------------------------|
Gb|------------------------|
Db|------------------------|
Ab|-2-2--2-2-2--2-2-2------|
Eb|-0-0--0-0-0--0-0-0--...-|
    * *  * * *  * * * 


Ending:
eb|-------------------------------|
Bb|-------------------------------|
Gb|-------------------------------|
Db|-5---------4---------3---------|
Ab|-5-5-5-5-5-4-4-4-4-4-3-3-5-3-2-|
Eb|-3-3-3-3-3-2-2-2-2-2-1-1-3-1-0-|
      * * * *   * * * *   * * *

----------------------------------------------

2. I DIED FOR YOU

Tuning: Eb

Riff 1 (Clean & 12 string acoustic)
eb|----------------------------------|
Bb|----------------------------------|
Gb|-----0-----0-------------0--------|
Db|---2-----2------------4-----4---4-|
Ab|--------------------5---------5---|
Eb|-0-----0--------------------------|
   "I can't believe..."


Riff 2 (Distortion) 
eb|------------------------------------|
Bb|------------------------------------|
Gb|------------------------------------|
Db|------5----4-5-------------5----4-4-|
Ab|------7----5-7-------------7----5-5-|
Eb|-0-00---00------------0-00---00-----|
      **   **              **   ** 
   "Oh how I love you..."


Play Riff 1   "The pain was just..."

Guitar fills over Riff 1:
Guitar 2
eb|-----------------------------|
Bb|-12--10--8----10--12--10-----|
Gb|--------------------------11-|
Db|-----------------------------|
Ab|-----------------------------|
Eb|-----------------------------|

Guitar 3
eb|-----------------------------|
Bb|-----------------------------|
Gb|-12--11--9----11--12--11-----|
Db|--------------------------12-|
Ab|-----------------------------|
Eb|-----------------------------|


Play Riff 2    "Oh how I love you..."
Play Riff 2    Solo Rhythm

At 3:06 Riff 2 changes to this:
eb|------------------------------------|
Bb|------------------------------------|
Gb|------------------------------------|
Db|------9----7-9-------------9----7-7-|
Ab|------7----5-7-------------7----5-5-|
Eb|-0-00---00------------0-00---00-----|
      **   **              **   **

Song fades out to this rhythm.

Ending Leads:
(Both guitars displayed in entirety sequentially)

Guitar 1
eb|---------------------|
Bb|-20b22r20-19-20-17~--|
Gb|---------------------|
Db|---------------------|
Ab|---------------------|
Eb|---------------------|

eb|------------------------------|
Bb|-20b22r20-19-20-15~--13-12-13-|
Gb|------------------------------|
Db|------------------------------|
Ab|------------------------------|
Eb|------------------------------|

eb|---------------------|
Bb|-20b22r20-19-20-17~--|
Gb|---------------------|
Db|---------------------|
Ab|---------------------|
Eb|---------------------|

eb|---------------------------|
Bb|-20b22r20-19-20-15~--13-12-|
Gb|---------------------------|
Db|---------------------------|
Ab|---------------------------|
Eb|---------------------------|

eb|-15-14-15-12~--15-14--------|
Bb|---------------------15-12~-|
Gb|----------------------------| -------|
Db|----------------------------|        |
Ab|----------------------------|        |
Eb|----------------------------|        |
                                        |--> Play 4x
eb|-14-15-/17-14----------------|       |
Bb|---------------15------------|       |
Gb|-------------------14-16-14~-|       |
Db|-----------------------------| ------|
Ab|-----------------------------|
Eb|-----------------------------|

eb|-19-000-17-00-19-19-0-20-000-17-00-15-0-|
Bb|----------------------------------------|
Gb|----------------------------------------| ---|
Db|----------------------------------------|    |
Ab|----------------------------------------|    |
Eb|----------------------------------------|    |
                                                |--> Play til
eb|-15\14-14~----15/17----17--15-17-14~-|       |--> fade out
Bb|-------------------------------------|       |
Gb|-------------------------------------|       |
Db|-------------------------------------| ------|
Ab|-------------------------------------|
Eb|-------------------------------------|


Guitar 2
eb|-22b24r22-21-22-19~--|
Bb|---------------------|
Gb|---------------------|
Db|---------------------|
Ab|---------------------|
Eb|---------------------|

eb|-22b24r22-21-22-17~-----------|
Bb|---------------------20-19-20-|
Gb|------------------------------|
Db|------------------------------|
Ab|------------------------------|
Eb|------------------------------|

eb|-22b24r22-21-22-19~--|
Bb|---------------------|
Gb|---------------------|
Db|---------------------|
Ab|---------------------|
Eb|---------------------|

eb|-22b24r22-21-22-17~--------|
Bb|---------------------20-19-|
Gb|---------------------------|
Db|---------------------------|
Ab|---------------------------|
Eb|---------------------------|

eb|-24-22-24-19~--24-21--------|
Bb|---------------------20-19~-|
Gb|----------------------------| ------|
Db|----------------------------|       |
Ab|----------------------------|       |
Eb|----------------------------|       |
                                       |--> Play 4x
eb|-----------------------------|      |
Bb|-15-17-/19-15--12------------|      |
Gb|-------------------14-12-11~-|      |
Db|-----------------------------| -----|
Ab|-----------------------------|
Eb|-----------------------------|

eb|-7-000-5-00-7-7-0-8-000-5-00-3-0-|
Bb|---------------------------------|
Gb|---------------------------------| ---|
Db|---------------------------------|    |
Ab|---------------------------------|    |
Eb|---------------------------------|    |
                                         |--> Play til
eb|-3\2-2~----3/5--5--5-3-5-2~-|         |--> fade out
Bb|----------------------------|         |
Gb|----------------------------|         |
Db|----------------------------| --------|
Ab|----------------------------|
Eb|----------------------------|

----------------------------------------------------

3. VIOLATE
Tuning: Eb

Riff 1
Guitar 1
eb|------------------------|
Bb|------------------------|
Gb|------------------------|
Db|------------------------|
Ab|-2------2------3------5-|
Eb|-0----0-0----0-1----0-3-|
         *      *      * 
Guitar 2
eb|------------------------------------------------|
Bb|------------------------------------------------|
Gb|------------------------------------------------|
Db|-9----10-9----10-9-10-12-10----10\5-5----5--/10-|
Ab|------------------------------------------------|
Eb|------------------------------------------------|

Guitar 3
eb|-----------------------------------------|
Bb|-----------------------------------------|
Gb|-7----9-7----9-7-9-10-9----9\4-4----4-/9-|
Db|-----------------------------------------|
Ab|-----------------------------------------|
Eb|-----------------------------------------|


Riff 2
eb|---------------------------------|
Bb|---------------------------------|
Gb|---------------------------------|
Db|---------------------------------|
Ab|-3-2-----------------------------|
Eb|-1-0-000-000-000-000-000-000-000-|
        *** *** *** *** *** *** ***
   "Enter now the fiendish one..."
eb|-------------------------------|
Bb|-------------------------------|
Gb|-------------------------------|
Db|-------------------------------|
Ab|-3-2------------------3------3-|
Eb|-1-0-000-000-000-3333-1-3333-1-|
        *** *** *** ****   ****
   "...twisted little man..."

Final time:
eb|---------------------------------|
Bb|---------------------------------|
Gb|---------------------------------|
Db|---------------------------------|
Ab|-3-2-----------------------------|
Eb|-1-0-000-000-000-000-000-000-000-|
        *** *** *** *** *** *** ***
eb|---------------------------------|
Bb|---------------------------------|
Gb|---------------------------------|
Db|---------------------------------|
Ab|-3-2------------------3------3---|
Eb|-1-0-000-000-000-3333-1-3333-1-0-|
        *** *** *** ****   ****   *


Riff 3                       x3
eb|---------------------------|
Bb|---------------------------|
Gb|---------------------------|
Db|---------------------------|
Ab|-2-----2-----1-------------|
Eb|-0-0-0-3-3-3-2-2-2-2-2-2-2-|
      * *   * *   * * * * * * 
  "Enter now..."
eb|------------------------------|
Bb|------------------------------|
Gb|------------------------------|
Db|------------------------------|
Ab|-2-----2-----1-------------2--|
Eb|-0-0-0-3-3-3-2-2-2-2-2-2-0-0--|
      * *   * *   * * * * * * 

Play Riff 2   "I'll beat you with your spinal cord..."
Play Riff 3   "Enter now..."

Riff 4
Guitar 1
eb|-------------------------|
Bb|-------------------------|
Gb|-------------------------|
Db|---------9\----------12\-|
Ab|---------7\----------10\-|
Eb|-000-000-----000-000-----|
    *** ***     *** ***   
eb|---------------------------|
Bb|---------------------------|
Gb|---------------------------|
Db|----------9\----------7-10-|
Ab|----------7\----------5--8-|
Eb|-000-000------000-000-5--8-|
    *** ***      *** ***

Guitar 2 (Phaser effect)
eb|-------------------------|
Bb|---8~--------------------|
Gb|---7~--------------------|
Db|-------------------0-----|
Ab|-------------------0-----|
Eb|----------------------0--|


Play Riff 3   "Enter now..."

Riff 5
Guitar 1
eb|--------------------------------------|
Bb|--------------------------------------|
Gb|--------------------------------------|
Db|------2---------3---------2----5----3-|
Ab|------2---------3---------2----5----3-|
Eb|-00-0-0----11-1-1----00-0-0----3----1-|
    ** *      ** *      ** *  

Guitar 2
eb|---------------------------------------|
Bb|---------------------------------------|
Gb|---------------------------------------|
Db|----9~------9-/12--10-9-10~----12-10-9-|
Ab|-7--------7----------------------------|
Eb|---------------------------------------|

eb|--------------------------------------|
Bb|--------------------------------------|
Gb|--------------------------------------|
Db|----9~----10-9--------10-9-7~----10-9-|
Ab|-7-------------10~--------------------|
Eb|--------------------------------------|

Guitar 3 (Comes in the 3rd time)
eb|------------------------------------|
Bb|------------------------------------|
Gb|----7~------7-/10--9-7-9~----10-9-7-|
Db|-5--------5-------------------------|
Ab|------------------------------------|
Eb|------------------------------------|

eb|-----------------------------------|
Bb|-----------------------------------|
Gb|----7~----9-7-------9-7--------9-7-|
Db|-5------------9~--------10~--------|
Ab|-----------------------------------|
Eb|-----------------------------------|


Guitar 4 (Comes in the 5th time)
eb|----------------------------------|
Bb|----17-19-----------17-19---------|
Gb|-16-------16~----16-------16--17~-|
Db|----------------------------------|
Ab|----------------------------------|
Eb|----------------------------------|

eb|----------------------------------|
Bb|----19-20-17~-------19-20---------|
Gb|-16--------------16-------16--17~-|
Db|----------------------------------|
Ab|----------------------------------|
Eb|----------------------------------|

-------------------------------------------------

4. THE HUNTER
Tuning: Eb

Riff 1
Guitar 1 (Clean)                              x2
eb|--------------------------------------------|
Bb|--------------------------------------------|
Gb|--------------------------------------------|
Db|--------------------------------------------|
Ab|---7-8-7--5--8-7-8-7------7-8-7--5--8-7-8-7-|
Eb|-0----------------------0-------------------|

eb|---------------------------------------------|
Bb|---------------------------------------------|
Gb|-------12--------------------10--------------|
Db|----12----12----12---12---10----10---10---10-|
Ab|-10----------10----10---8----------8----8----|
Eb|---------------------------------------------|


Riff 1a (Clean)
Guitar 1
eb|--------------------------------------------|
Bb|--------------------------------------------|
Gb|--------------------------------------------|
Db|--------------------------------------------|
Ab|---7-8-7--5--8-7-8-7------7-8-7--5--8-7-8-7-|
Eb|-0----------------------0-------------------|

eb|---------------------------------------------|
Bb|---------------------------------------------|
Gb|-------12--------------------10--------------|
Db|----12----12----12---12---10----10---10---10-|
Ab|-10----------10----10---8----------8----8----|
Eb|---------------------------------------------|

Guitar 2                      x2
eb|----------------------------|
Bb|----------------------------|
Gb|----------------------------|
Db|----------------------------|
Ab|---10-12-10--9--12-10-12-10-|
Eb|-0--------------------------|

eb|-------------------------------------------------|
Bb|-------15----------------------13----------------|
Gb|----14----14----14----14----12----12----12----12-|
Db|-12----------12----12----10----------10----10----|
Ab|-------------------------------------------------|
Eb|-------------------------------------------------|


Riff 2 (Distortion)
Guitar 1
eb|---------------------------------------|
Bb|---------------------------------------|
Gb|---------------------------------------|
Db|---------------------------------------|
Ab|------7-7-55-5-55-5------7-7-33-3-33-3-|
Eb|-0-00---------------0-00---------------|
      **     **   **     **     **   **   
eb|---------------------------------------|
Bb|---------------------------------------|
Gb|---------------------------------------|
Db|---------------------------------------|
Ab|------7-7-55-5-55-5-3-33-3-33-3-33-3/5-|
Eb|-0-00----------------------------------|
      **     **   **     **   **   **

Guitar 2
eb|-------------------------------------------|
Bb|-------------------------------------------|
Gb|-------------------------------------------|
Db|-------------------------------------------|
Ab|------10-10----9----9------10-10----7----7-|
Eb|-0-00-------00---00---0-00-------00---00---|
      **       **   **     **       **   **   
eb|-----------------------------------------|
Bb|-----------------------------------------|
Gb|-----------------------------------------|
Db|-----------------------------------------|
Ab|------10-10----9----9-7-77-7-77-7-77-7/9-|
Eb|-0-00-------00---00----------------------|
      **       **   **     **   **   **


Riff 3
Guitar 1
eb|---------------------------------------|
Bb|---------------------------------------|
Gb|---------------------------------------|
Db|------9-9----7----7------9-9----4----4-|
Ab|-2----7-7-55-5-55-5-2----7-7-22-2-22-2-|
Eb|-0-00---------------0-00---------------|
      **     **   **     **     **   **    
eb|-----------------------------------------|
Bb|-----------------------------------------|
Gb|-----------------------------------------|
Db|------9-9----7----7---5----5----5----5/7-|
Ab|-2----7-7-55-5-55-5p0-3-33-3-33-3-33-3/5-|
Eb|-0-00------------------------------------|
      **     **   **       **   **   **

Guitar 2
eb|------------------------------------------------|
Bb|------------------------------------------------|
Gb|------------------------------------------------|
Db|----/12-10--9--7-7h9-9~-------9-7---------------|
Ab|-7-------------------------7-------10--9-9p7-7~-|
Eb|------------------------------------------------|

Guitar 3 (Comes in the 2nd time)
eb|----------------------------------------------|
Bb|----------------------------------------------|
Gb|----/10-9--7--5-5h7-7~-------7-5--------------|
Db|-5------------------------5-------9--7-7p5-5~-|
Ab|----------------------------------------------|
Eb|----------------------------------------------|



Riff 4
eb|--------------------|
Bb|--------------------|
Gb|--------------------|
Db|--------------------|
Ab|-2----2------2----3-|
Eb|-0-00-0-0000-0-00-1-|
      **   ****   **
   "A force of light..."

Play Riff 3
Play Riff 4   "Heaven sent the hunter..."


Riff 3a
Guitar 1
eb|---------------------------------------|
Bb|---------------------------------------|
Gb|---------------------------------------|
Db|------9-9----7----7------9-9----4----4-|
Ab|-2----7-7-55-5----5-2----7-7-22-2----2-|
Eb|-0-00---------------0-00---------------|
      **     **          **     **        
   "Descending from heaven..."
eb|--------------------------------------|
Bb|--------------------------------------|
Gb|--------------------------------------|
Db|------9-9----7----5-----5----5----5/7-|
Ab|-2----7-7-55-5-55-3--33-3-33-3-33-3/5-|
Eb|-0-00---------------------------------|
      **     **   **    **   **   **

Guitar 2
eb|------------------------------------------------|
Bb|------------------------------------------------|
Gb|------------------------------------------------|
Db|----/12-10--9--7-7h9-9~-------9-7---------------|
Ab|-7-------------------------7-------10--9-9p7-7~-|
Eb|------------------------------------------------|

Guitar 3 (Comes in the 2nd time)
eb|----------------------------------------------|
Bb|----------------------------------------------|
Gb|----/10-9--7--5-5h7-7~-------7-5--------------|
Db|-5------------------------5-------9--7-7p5-5~-|
Ab|----------------------------------------------|
Eb|----------------------------------------------|



Riff 5
eb|--------------------------------------|
Bb|--------------------------------------|
Gb|--------------------------------------|
Db|--------------------------------------|
Ab|-2----8-7----5----8-7-8-7~\--2----3-3-|
Eb|-0-00-----00---00------------0-00-1-1-|
      ** a a **   ** a a a a      **


Riff 5a
Guitar 1
eb|-------------------------------------|
Bb|-------------------------------------|
Gb|-------------------------------------|
Db|-------------------------------------|
Ab|-2----8-7----5----8-7-8-7\--2----3-3-|
Eb|-0-00-----00---00-----------0-00-1-1-|
      **     **   **             **
Guitar 2
eb|--------------------------------------------|
Bb|--------------------------------------------|
Gb|--------------------------------------------|
Db|--------------------------------------------|
Ab|-2----15-14----12----15-14-15-14\--2----3-3-|
Eb|-0-00-------00----00---------------0-00-1-1-|
      **       **    **                 **

Ending to Riff 5a (Both guitars)
eb|--------------------------------|
Bb|--------------------------------|
Gb|--------------------------------|
Db|-12------12----------12------12-|
Ab|-10-1010-10-10101010-10-1010-10-|
Eb|--------------------------------|
        * *     * * * *     * *
eb|------------------------|
Bb|------------------------|
Gb|------------------------|
Db|-10----10------10----10-|
Ab|--8-88--8-8888--8-88--8-|
Eb|------------------------|
       **    ****    **

Two guitar fills during above riff:
#1
eb|-10-----{10}{10}-13b15~--(15)r13-|
Bb|-13b15---------------------------|
Gb|---------------------------------|
Db|---------------------------------|
Ab|---------------------------------|
Eb|---------------------------------|

eb|--8-----{8}{8}--11b13~-|
Bb|-11b13-----------------|
Gb|-----------------------|
Db|-----------------------|
Ab|-----------------------|
Eb|-----------------------|

#2
eb|-10-----{10}{10}-13b15~--(15)r13-|
Bb|-13b15---------------------------|
Gb|---------------------------------|
Db|---------------------------------|
Ab|---------------------------------|
Eb|---------------------------------|

eb|--8-----{8}{8}--11b13~--(13)r11-|
Bb|-11b13--------------------------|
Gb|--------------------------------|
Db|--------------------------------|
Ab|--------------------------------|
Eb|--------------------------------|

eb|-12----12-----12--12--12-----12----|
Bb|-15b17-15b17--15--15--15b17--15b17-|
Gb|-----------------------------------|
Db|-----------------------------------|
Ab|-----------------------------------|
Eb|-----------------------------------|

End guitar fills


Play Riff 4   "She swore an oath..."
Play Riff 3a  "Descending from heaven..."
Play Riff 4

Ending:
eb|--------|
Bb|--------|
Gb|--------|
Db|--------|
Ab|-2----2-|
Eb|-0-00-0-|
      **

----------------------------------------------

5. THE LAST LAUGH
Tuning: Eb

Intro fades in:

Riff 1
eb|-----------------------|
Bb|-----------------------|
Gb|-----------------------|
Db|-9--------12--------10-|
Ab|-7--------10---------8-|
Eb|-----------------------|

Final time
eb|----------------------------------|
Bb|----------------------------------|
Gb|----------------------------------|
Db|-9--------12--------10------------|
Ab|-7--------10---------8------------|
Eb|--------------------------00-/15\-|
                             **

Riff 2
eb|--------------------------------|
Bb|--------------------------------|
Gb|--------------------------------|
Db|--------------------------------|
Ab|-2------------------------------|
Eb|-0-0000000000000000000000000000-|
      ****************************
   "My personal quest..."
eb|------------------------------------|
Bb|------------------------------------|
Gb|------------------------------------|
Db|------------------------------------|
Ab|-5-4------4-3------3-2--------------|
Eb|-3-2-0000-2-1-0000-1-0-000000000000-|
        ****     ****     ************



Riff 3
eb|--------------------------------|
Bb|--------------------------------|
Gb|--------------------------------|
Db|--------------------------------|
Ab|-2-2-2-2-2-2-2-2-2-2-2-2-2------|
Eb|-0-0-0-0-0-0-0-0-0-0-0-0-0-0000-|
      * * * * * * * * * * * * **** 
   "I am your father..."
eb|-----------------------------------|
Bb|-----------------------------------|
Gb|-----------------------------------|
Db|-----------------------------------|
Ab|-5-4------4-3------3-2-2-2-2-2-2-2-|
Eb|-3-2-0000-2-1-0000-1-0-0-0-0-0-0-0-|
        ****     ****     * * * * * * 
   "I've taken..."


Riff 1a
eb|-------------------------------------|
Bb|-------------------------------------|
Gb|-------------------------------------|
Db|-9-------9/-12------12\10-10------10-|
Ab|-7-------7/-10------10\-8--8-------8-|
Eb|-------------------------------------|

eb|----------------------------------------|
Bb|----------------------------------------|
Gb|----------------------------------------|
Db|-9-------9/-12------12\10-10------------|
Ab|-7-------7/-10------10\-8--8------------|
Eb|--------------------------------00-/15\-|
                                   **


Play Riff 2   "In your hour of darkness..."
Play Riff 3   "I am your father..."

Lead into next section:
eb|-----|
Bb|-----|
Gb|-----|
Db|-----|
Ab|--2--|
Eb|--0--|
     

Riff 4
eb|----------------------------------|
Bb|----------------------------------|
Gb|----------------------------------|
Db|----------------------------------|
Ab|----------------------------------|
Eb|-00000000000000000000000000000000-|
    ********************************
   "Extending..."                     Final chord
eb|-----------------------------------|-----|
Bb|-----------------------------------|-----|
Gb|-----------------------------------|-----|
Db|-----------------------------------|-----|
Ab|-----------------------------------|--2--|
Eb|-3333333333333333-1111111111111111-|--0--|
    **************** ****************
   "...now you rise..."


Riff 5
Guitar 1
eb|---------------------------------------|
Bb|---------------------------------------|
Gb|---------------------------------------|
Db|---------------------------------------|
Ab|----3--2-------3--2-------3--2-------3-|
Eb|-00-1--0----00-1--0----00-1--0----00-1-|
    **         **         **         **       
   "My new born son..."
                            x2
eb|--------------------------|
Bb|--------------------------|
Gb|--------------------------|
Db|--------------------------|
Ab|-2----2-----2-----2-----3-|
Eb|-0-00-0--00-0--00-0--00-1-|
      **    **    **    **   
   "Fly now and do battle..."

Guitar 2 (Clean)
eb|-------2-----2-0-2-------2-----2-0-|
Bb|---0h1---1-0---------0h1---1-0-----|
Gb|-----------------------------------|
Db|-----------------------------------|
Ab|-----------------------------------|
Eb|-0-----------------0---------------|


Riff 6 (Solo Rhythm)
eb|----------------------------------------|
Bb|----------------------------------------|
Gb|----------------------------------------|
Db|----------------------------------------|
Ab|--------------------------------------3-|
Eb|-0--000--000--00-1111-0--000--000--00-1-|
    *  ***  ***  ** **** *  ***  ***  ** 


Solo

Guitar 1
eb|---------------------------12-14-15-14b15r14------|
Bb|---------10-12-13-12-13-15-------------------12~~-|
Gb|-9-11-12------------------------------------------|
Db|--------------------------------------------------|
Ab|--------------------------------------------------|
Eb|--------------------------------------------------|

eb|-14----12--------------------------------|
Bb|----15----13-15-12-13----12-------13-12~-|
Gb|----------------------14----12-14--------|
Db|-----------------------------------------|
Ab|-----------------------------------------|
Eb|-----------------------------------------|

eb|---------------------------12-14-15-14b15r14-19~~-|
Bb|---------10-12-13-12-13-15----------------------~-|
Gb|-9-11-12------------------------------------------|
Db|--------------------------------------------------|
Ab|--------------------------------------------------|
Eb|--------------------------------------------------|

eb|-15-12-14----12-------------------------------------|
Bb|----------15----13-15-12-13----12-13-12~------------|
Gb|----------------------------14--------------11^-12~-|
Db|----------------------------------------------------|
Ab|----------------------------------------------------|
Eb|----------------------------------------------------|

Guitar 2:
eb|----------------------------15-17-19-17b19r17------|
Bb|----------13-15-17-15-17-19-------------------15~~-|
Gb|-12-14-16------------------------------------------|
Db|---------------------------------------------------|
Ab|---------------------------------------------------|
Eb|---------------------------------------------------|

eb|-22-19-20----19--------------------------|
Bb|----------22----20-22-19-20----19-22-20~-|
Gb|----------------------------21-----------|
Db|-----------------------------------------|
Ab|-----------------------------------------|
Eb|-----------------------------------------|

eb|----------------------------15-17-19-17b19r17-22~~-|
Bb|----------13-15-17-15-17-19------------------------|
Gb|-12-14-16------------------------------------------|
Db|---------------------------------------------------|
Ab|---------------------------------------------------|
Eb|---------------------------------------------------|

eb|-24-20-22-19-20----19-------------------------------|
Bb|----------------22----20-22-19-20-22-20~------------|
Gb|--------------------------------------------19^-21~-|
Db|----------------------------------------------------|
Ab|----------------------------------------------------|
Eb|----------------------------------------------------|

End Solo


Play Riff 1
Play Riff 2    "In your hour of darkness..."
Play Riff 3    "I am your father..."
Play Riff 4    "Extending..." [Leave off final chord]
Play Riff 3

Ending:
eb|--------------------------------|
Bb|--------------------------------|
Gb|--------------------------------|
Db|--------------------------------|
Ab|-2-2-2-2-2-2-2-2-2-2-2-2-2------|
Eb|-0-0-0-0-0-0-0-0-0-0-0-0-0-0000-|
      * * * * * * * * * * * * **** 
eb|-----------------------|
Bb|-----------------------|
Gb|-----------------------|
Db|-----------------------|
Ab|-5-4------4-3------3-2-|
Eb|-3-2-0000-2-1-0000-1-0-|
        ****     ****

---------------------------------------------------------

6. DEPTHS OF HELL

Tuning: Eb

Riff 1
Guitar 1 (Clean)
eb|---------------------------------|
Bb|---------------------------------|
Gb|---------------------------------|
Db|-2-2-2-4-2-4-5-4-5-5-5-5-5-5-5-5-|
Ab|---------------------------------|
Eb|---------------------------------|
    * * * * * * * * * * * * * * * *
eb|---------------------------------|
Bb|---------------------------------|
Gb|---------------------------------|
Db|-9-9-9-7-9-7-5-7-5-5-5-5-5-5-5-5-|
Ab|---------------------------------|
Eb|---------------------------------|
    * * * * * * * * * * * * * * * *

Guitar 2 (Distortion)
eb|---------------------------------|
Bb|---------------------------------|
Gb|---------------------------------|
Db|---------------------------------|
Ab|---------------------------------|
Eb|-0-0-0-0-0-0-0-0-0-0-0-0-0-0-0-0-|
    * * * * * * * * * * * * * * * *
eb|---------------------------------|
Bb|---------------------------------|
Gb|---------------------------------|
Db|---------------------------------|
Ab|---------------------------------|
Eb|-0-0-0-0-0-0-0-0-0-0-0-0-0-0-0-0-|
    * * * * * * * * * * * * * * * *


Riff 2
Guitars 1 (Clean)                      x2
eb|-------------------------------------|
Bb|-------------------------------------|
Gb|-------------------------------------|
Db|-3-3-3-2-2-2-2-2-2-2-2-2-2-2-2-2-2-2-|
Ab|-------------------------------------|
Eb|-------------------------------------|
    * * * * * * * * * * * * * * * * * * 

Guitar 2 (Distortion)                  x2
eb|-------------------------------------|
Bb|-------------------------------------|
Gb|-------------------------------------|
Db|-10-10-10--9--------(9)--------(9)---|
Ab|--8--8--8--7--------(7)--------(7)---|
Eb|-------------------------------------|


Play Riff 1   "Angels coming..."
Play Riff 2 
Play Riff 1   "Challengers call him..."
Play Riff 2


Riff 3 (Distortion)                x2
eb|---------------------------------|
Bb|---------------------------------|
Gb|---------------------------------|
Db|---------------------------------|
Ab|-2-2-2-2-2-2-2-2-2-2-2-2-2-2-2-2-|
Eb|-0-0-0-0-0-0-0-0-0-0-0-0-0-0-0-0-|
      * *   * *   * *   * *           
   "Battles won..."  
eb|---------------------------------|
Bb|---------------------------------|
Gb|---------------------------------|
Db|---------------------------------|
Ab|-3-3-3-3-3-3-3-3-3-3-3-2-5-5-5-5-|
Eb|-1-1-1-1-1-1-1-1-1-1-1-0-3-3-3-3-|
      * *   * *   * *   * *      
   "Feel the pain..."
eb|---------------------------------|
Bb|---------------------------------|
Gb|---------------------------------|
Db|---------------------------------|
Ab|-2-2-2-2-2-2-2-2-2-2-2-2-2-2-2-2-|
Eb|-0-0-0-0-0-0-0-0-0-0-0-0-0-0-0-0-|
      * *   * *   * *   * *       *
eb|---------------|
Bb|---------------|
Gb|---------------|
Db|---------------|
Ab|-5-5-5-5-2-2-3-|
Eb|-3-3-3-3-0-0-1-|
            * *
  "From the depths of hell..."


Riff 4
eb|-----------------------------|
Bb|-----------------------------|
Gb|-------------------------5-4-|
Db|-----------------------------|
Ab|-2-2-2-2-2-2-2-2-2-2-2-2-3-2-|
Eb|-0-0-0-0-0-0-0-0-0-0-0-0-----|
      * *   * *   * *   * *
eb|-------------------------------|
Bb|-------------------------------|
Gb|-------------------------5-4---|
Db|-------------------------------|
Ab|-2-2-2-2-2-2-2-2-2-2-2-2-3-2-2-|
Eb|-0-0-0-0-0-0-0-0-0-0-0-0-----0-|
      * *   * *   * *   * *     *
eb|--------------------------------|
Bb|--------------------------------|
Gb|--------------------------------|
Db|--------------------------------|
Ab|-5-5-5-5-2-2-3----5-5-5-5-5-5-2-|
Eb|-3-3-3-3-0-0-1----3-3-3-3-3-3-0-|
            * *              * *
  "From the depths of hell..."
eb|----------------------|
Bb|----------------------|
Gb|----------------------|
Db|----------------------|
Ab|-5-5-5-5-2-2-3----5-3-|
Eb|-3-3-3-3-0-0-1----3-1-|
            * *


Riff 5 (Solo Rhythm)
eb|-----------------------------|
Bb|-----------------------------|
Gb|-------------------------5-4-|
Db|-----------------------------|
Ab|-2-2-2-2-2-2-2-2-2-2-2-2-3-2-|
Eb|-0-0-0-0-0-0-0-0-0-0-0-0-----|
      * *   * *   * *   * *
eb|-------------------------------|
Bb|-------------------------------|
Gb|-------------------------5-4---|
Db|-------------------------------|
Ab|-2-2-2-2-2-2-2-2-2-2-2-2-3-2-2-|
Eb|-0-0-0-0-0-0-0-0-0-0-0-0-----0-|
      * *   * *   * *   * *     *
eb|-----------------------------|
Bb|-----------------------------|
Gb|-------------------------4-5-|
Db|-----------------------------|
Ab|-3-3-3-3-3-3-3-3-3-3-3-3-2-3-|
Eb|-1-1-1-1-1-1-1-1-1-1-1-1-----|
      * *   * *   * *   * * 
eb|-------------------------------|
Bb|-------------------------------|
Gb|-------------------------5-4---|
Db|-------------------------------|
Ab|-2-2-2-2-2-2-2-2-2-2-2-2-3-2-2-|
Eb|-0-0-0-0-0-0-0-0-0-0-0-0-----0-|
      * *   * *   * *   * *     * 
eb|--------------------------------|
Bb|--------------------------------|
Gb|--------------------------------|
Db|--------------------------------|
Ab|-5-5-5-5-2-2-3----5-5-5-5-5-5-2-|
Eb|-3-3-3-3-0-0-1----3-3-3-3-3-3-0-|
            * *              * *
eb|----------------------|
Bb|----------------------|
Gb|----------------------|
Db|----------------------|
Ab|-5-5-5-5-2-2-3----5-3-|
Eb|-3-3-3-3-0-0-1----3-1-|
            * *
Solo
eb|----------------------------------------------|
Bb|----------------------------------------------|
Gb|-9/10-10-10/12-12-12/14-14-14/16-16-16/17-16~-|
Db|----------------------------------------------|
Ab|----------------------------------------------|
Eb|----------------------------------------------|

eb|-----------------------------------------------|
Bb|-----------------------------------------------|
Gb|-16/17-17-17/19-19-19\17-17-17\16-16-16\14-14\-|
Db|-----------------------------------------------|
Ab|-----------------------------------------------|
Eb|-----------------------------------------------|

eb|------------------------------|
Bb|------------------------------|
Gb|---4--------------------------|
Db|-5---5--7~----/12-10-9-----10-|
Ab|-----------------------10-----|
Eb|------------------------------|

eb|--------------------|
Bb|--------------------|
Gb|--------------------|
Db|-10\9~~----7-5-5----|
Ab|-----------------7~-|
Eb|--------------------|

Harmony part:

Guitar 1:
eb|----12-14-12-----------------------------|
Bb|-15-----------13-15----13-15-17-15-13----|
Gb|--------------------------------------16-|
Db|-----------------------------------------|
Ab|-----------------------------------------|
Eb|-----------------------------------------|

eb|--------------------------10-15-10-----|
Bb|-12-13-15-13-----12--------------------|
Gb|--------------14-------------------12~-|
Db|---------------------------------------|
Ab|---------------------------------------|
Eb|---------------------------------------|

eb|----12-14-12-------------------------|
Bb|-15-----------13-15------------------|
Gb|-----------------------10b11r10-9-9~-|
Db|-------------------------------------|
Ab|-------------------------------------|
Eb|-------------------------------------|


Guitar 2:
eb|-19-20-22-20--17-19----------------------|
Bb|-----------------------------------------|
Gb|-----------------------14-16-17-16-14----|
Db|--------------------------------------17-|
Ab|-----------------------------------------|
Eb|-----------------------------------------|

eb|-15-17-19-17--14-15----19-24-19-----|
Bb|--------------------------------17~-|
Gb|------------------------------------|
Db|------------------------------------|
Ab|------------------------------------|
Eb|------------------------------------|

eb|-19-20-22-20--17-19----------------|
Bb|-----------------------9b10r9-8-8~-|
Gb|-----------------------------------|
Db|-----------------------------------|
Ab|-----------------------------------|
Eb|-----------------------------------|

End Solo


Play Riff 1   "Darkness dwelling..."
Play Riff 2
Play Riff 1   "Shattered pieces..."
Play Riff 2
Play Riff 3   "When the smoke clears..."

Riff 4a
eb|-----------------------------|
Bb|-----------------------------|
Gb|-------------------------5-4-|
Db|-----------------------------|
Ab|-2-2-2-2-2-2-2-2-2-2-2-2-3-2-|
Eb|-0-0-0-0-0-0-0-0-0-0-0-0-----|
      * *   * *   * *   * *
eb|-------------------------------|
Bb|-------------------------------|
Gb|-------------------------5-4---|
Db|-------------------------------|
Ab|-2-2-2-2-2-2-2-2-2-2-2-2-3-2-2-|
Eb|-0-0-0-0-0-0-0-0-0-0-0-0-----0-|
      * *   * *   * *   * *     *
eb|--------------------------------|
Bb|--------------------------------|
Gb|--------------------------------|
Db|--------------------------------|
Ab|-5-5-5-5-2-2-3----5-5-5-5-5-5-2-|
Eb|-3-3-3-3-0-0-1----3-3-3-3-3-3-0-|
            * *              * *
  "From the depths of hell..."
eb|------------------------|
Bb|------------------------|
Gb|------------------------|
Db|------------------------|
Ab|-5-5-5-5-2-2-3----5-3-2-|
Eb|-3-3-3-3-0-0-1----3-1-0-|
            * *

--------------------------------------------------------

7. VENGEANCE IS MINE

Tuning: Eb

Riff 1
Guitar 1 (Distortion)    x4
eb|-----------------------|-----|
Bb|-----------------------|-----|
Gb|-----------------------|-----|
Db|-------------4---------|-----|
Ab|-2------2-2--2--2-2--3-|--2--|
Eb|-0------0-0-----0-0--1-|--0--|
           * *     * *     

Guitar 2 (Clean)
eb|-----------------------------|
Bb|-0-0-8p0-7p0-5p0-4p0-5p0-7h8-|
Gb|-----------------------------|
Db|-----------------------------|
Ab|-----------------------------|
Eb|-----------------------------|
                                        Final note
eb|---0-7p0-7p0-8p0-8p0-7p0-7p0-8p0-8p0-|--0--|
Bb|-0-----------------------------------|-----|
Gb|-------------------------------------|-----|
Db|-------------------------------------|-----|
Ab|-------------------------------------|-----|
Eb|-------------------------------------|-----|



Lead into next section:
eb|---------|
Bb|---------|
Gb|---------|
Db|---------|
Ab|---3-----|
Eb|-1---1-3-|
    * * * * 


Riff 2 (Distortion)
eb|---------------------------------|
Bb|---------------------------------|
Gb|---------------------------------|
Db|---------------------------------|
Ab|---------------------------3-----|
Eb|-0-000-0-000-0-000-0-000-1---1-3-|
    * *** * *** * *** * *** * * * * 
   "Hear now this story..."
eb|--------------------------|
Bb|--------------------------|
Gb|--------------------------|
Db|-------------3------------|
Ab|-------------3------3-----|
Eb|-0-000-0-000-1----1---1-3-|
    * *** * ***      * * * *
   "...of a man..."

Final time:
eb|--------------------------|
Bb|--------------------------|
Gb|--------------------------|
Db|-------------3------------|
Ab|-------------3------3-----|
Eb|-0-000-0-000-1----1---1-0-|
    * *** * ***      * * * *

Riff 3
eb|---------------------------------|
Bb|---------------------------------|
Gb|---------------------------------|
Db|---------------------------------|
Ab|-3-----3-----3---4-----4-----4---|
Eb|---111---111---1---111---111---1-|
    * *** * *** * * * *** * *** * *
eb|---------------------------------|
Bb|---------------------------------|
Gb|---------------------------------|
Db|---------------------------------|
Ab|-1-----1-----1---3---3-----3-----|
Eb|---111---111---1---1---111---1-3-|
    * *** * *** * * * * * *** * * *


Play Riff 2   "Profane to humanity..."


Riff 4
eb|---------------------------------|
Bb|---------------------------------|
Gb|---------------------------------|
Db|---------------------------------|
Ab|-3-----3-----3-3-4-----4-----4-4-|
Eb|-1-1-1-1-1-1-1-1-1-1-1-1-1-1-1-1-|
      * *   * *       * *   * *
   "For all the young lives..."
eb|---------------------------------|
Bb|---------------------------------|
Gb|---------------------------------|
Db|---------------------------------|
Ab|-1-----1-----1---3---3-----------|
Eb|-1-1-1-1-1-1-1-1-1-1-1-111-1-1-1-|
      * *   * *   *   *   *** * * *
   "Fear now you shall obtain..."


Riff 5
Guitar 1
eb|-----------------------------------|
Bb|-----------------------------------|
Gb|-----------------------------------|
Db|-----------------------------------|
Ab|-3-2-2----2-2-2-2-2-2-2-2-3----3-3-|
Eb|-1-0-0-00-0-0-0-0-0-0-0-0-1-11-1-1-|
        * ** * * * * * * * * * ** * *  
  "...is mine..."
eb|----------------------------------|
Bb|----------------------------------|
Gb|----------------------------------|
Db|----------------------------------|
Ab|-3-2-2----2-2-2-2-2-2-2-2-2-2-2-2-|
Eb|-1-0-0-00-0-0-0-0-0-0-0-0-0-0-0-0-|
        * ** * * * * * * * * * * * * 

Guitar 2
eb|------------------------|
Bb|------------------------|
Gb|------------------------|
Db|-10--9--5~----10--9--2~-|
Ab|--------a---------------|
Eb|------------------------|
       


Play Riff 4   "For every young one..."


Riff 5a
Guitar 1
eb|-----------------------------------|
Bb|-----------------------------------|
Gb|-----------------------------------|
Db|-----------------------------------|
Ab|-3-2-2----2-2-2-2-2-2-2-2-3----3-3-|
Eb|-1-0-0-00-0-0-0-0-0-0-0-0-1-11-1-1-|
        * ** * * * * * * * * * ** * *  
  "...is mine..."
eb|--------------------------------------|
Bb|--------------------------------------|
Gb|--------------------------------------|
Db|--------------------------------------|
Ab|-3-2-2----2-2-2-2-2-2-2-2-2-2---3-----|
Eb|-1-0-0-00-0-0-0-0-0-0-0-0-0-0-1---1-0-|
        * ** * * * * * * * * * * * * * * 

Guitar 2
eb|------------------------|
Bb|------------------------|
Gb|------------------------|
Db|-10--9--5~----10--9--2~-|
Ab|--------a------------a--|
Eb|------------------------|



Riff 6 (Solo Rhythm)
                   x3
eb|-----------------|-----------------|
Bb|-----------------|-----------------|
Gb|-----------------|-----------------|
Db|-3-----3-----3-3-|-3-----3-----3---|
Ab|-3-----3-----3-3-|-3-----3-----3---|
Eb|---1-1---1-1-----|---1-1---1-1---1-|
      * *   * *         * *   * *   *
                                   x2
eb|---------------------------------|
Bb|---------------------------------|
Gb|---------------------------------|
Db|-4-------------------------------|
Ab|-2-----2-2-2-2-2-2-2-2-2-2-2-2-2-|
Eb|---000-0-0-0-0-0-0-0-0-0-0-0-0-0-|
      ***   * *   * *   * * * * * *


Solo
eb|--------------------------------------------------------|
Bb|--------------------------------------------------------|
Gb|-16b17-16~---------------16-16b17-16~---------------16\-|
Db|------------15--14~--15----------------15--14~--15------|
Ab|--------------------------------------------------------|
Eb|--------------------------------------------------------|

eb|------------------------------------------------------|
Bb|-12--10-------------------12--10----------------------|
Gb|---------12\9--9\7--7--9----------12\7--7/9--9-(9)/12-|
Db|------------------------------------------------------|
Ab|------------------------------------------------------|
Eb|------------------------------------------------------|

eb|--------------------------------------------------------|
Bb|--------------------------------------------------------|
Gb|-16b17-16~---------------16-16b17-16~---------------16\-|
Db|------------15--14~--15----------------15--14~--15------|
Ab|----------------------a---------------------------------|
Eb|--------------------------------------------------------|

eb|-----------------------------------------------------------|
Bb|-12--10-------------------12--10---------------------------|
Gb|---------12\9--9\7--7--9-------a--12\7--7/9--9-(9)/12\9-9~-|
Db|-----------------------------------------------------------|
Ab|-----------------------------------------------------------|
Eb|-----------------------------------------------------------|

End solo


Riff 7 (Solo Rhythm)               x3
eb|---------------------------------|
Bb|---------------------------------|
Gb|---------------------------------|
Db|-----5-----4-----2-----3-----2/3-|
Ab|-----7-----5-----2-----3-----2/3-|
Eb|-0-0---0-0---0-0---0-0---0-0-----|
    * *   * *   * *   * *   * *
eb|---------------------------------|
Bb|---------------------------------|
Gb|---------------------------------|
Db|-----5-----4-----2-----3-----2---|
Ab|-----7-----5-----2-----3-----2---|
Eb|-0-0---0-0---0-0---0-0---0-0---0-|
    * *   * *   * *   * *   * *   *
eb|-----------------------------|
Bb|-----------------------------|
Gb|-----------------------------|
Db|-3----------5--------2/3-2/3-|
Ab|-3----------5--------2/3-2/3-|
Eb|------1-111------3-0---------|
         * ***      * *

Final time:
eb|-----------------------------|
Bb|-----------------------------|
Gb|-----------------------------|
Db|-3----------5----5-----------|
Ab|-3----------5----5-----3-----|
Eb|------1-111--------0-1---1-3-|
         * ***          * * * *


Solo
Guitar 1
eb|-15p12----15p14----15h19p15h19-17-15----------------------|
Bb|-------12-------12-------------------19-15h19p15h19-17-15-|
Gb|----------------------------------------------------------|
Db|----------------------------------------------------------|
Ab|----------------------------------------------------------|
Eb|----------------------------------------------------------|

eb|-15p12----15p14----15h19p15h19-17-15-14~--(14)\-|
Bb|-------12-------12------------------------------|
Gb|------------------------------------------------|
Db|------------------------------------------------|
Ab|------------------------------------------------|
Eb|------------------------------------------------|

eb|-15p12----15p14----15h19p15h19-17-15-----------------------|
Bb|-------12-------12-------------------19-15h19p15h19-17-15\-|
Gb|-----------------------------------------------------------|
Db|-----------------------------------------------------------|
Ab|-----------------------------------------------------------|
Eb|-----------------------------------------------------------|

eb|-7----------8-----10-----|
Bb|-10b12~----11b13--13b15~-|
Gb|-------------------------|
Db|-------------------------|
Ab|-------------------------|
Eb|-------------------------|

Repeat the above, then play:

eb|-----------------------------------|
Bb|-----------------------------------|
Gb|-9~----11-12~----/14-11~----12-14~-|
Db|-----------------------------------|
Ab|-----------------------------------|
Eb|-----------------------------------|

eb|----------------------------------------|
Bb|------12~----13-15~---/17-13~---/15-12~-|
Gb|-/16\-----------------------------------|
Db|----------------------------------------|
Ab|----------------------------------------|
Eb|----------------------------------------|


Guitar 2 (Comes in the 2nd time)
eb|-19p15----19p17----19h22p19h22-20-19----------------------|
Bb|-------15-------15-------------------22-19h22p19h22-20-19-|
Gb|----------------------------------------------------------|
Db|----------------------------------------------------------|
Ab|----------------------------------------------------------|
Eb|----------------------------------------------------------|

eb|-19p15----19p17----19h22p19h22-20-19-17~--(17)\-|
Bb|-------15-------15------------------------------|
Gb|------------------------------------------------|
Db|------------------------------------------------|
Ab|------------------------------------------------|
Eb|------------------------------------------------|

eb|-19p15----19p17----19h22p19h22-20-19-----------------------|
Bb|-------15-------15-------------------22-19h22p19h22-20-19\-|
Gb|-----------------------------------------------------------|
Db|-----------------------------------------------------------|
Ab|-----------------------------------------------------------|
Eb|-----------------------------------------------------------|

eb|-10--------12-----14-----|
Bb|-13b15~----15b17--17b19~-|
Gb|-------------------------|
Db|-------------------------|
Ab|-------------------------|
Eb|-------------------------|

eb|-15~----17-19~----/20-17~----19-20~-|
Bb|------------------------------------|
Gb|------------------------------------|
Db|------------------------------------|
Ab|------------------------------------|
Eb|------------------------------------|

eb|-/22-------------------------------------|
Bb|------15~----17-19~---/20-17~----/19-15~-|
Gb|-----------------------------------------|
Db|-----------------------------------------|
Ab|-----------------------------------------|
Eb|-----------------------------------------|

End Solo


Play Riff 2   "I shall do..."
Play Riff 4   "For all the young lives..."
Play Riff 5   "...is mine..."
Play Riff 4   "For every young one..."
Play Riff 5   "...is mine..."

Guitar fill over ending chorus:
eb|--------------------------------------------------------|
Bb|--------------------------------------------------------|
Gb|-16b17-16~---------------16-16b17-16~---------------16\-|
Db|------------15--14~--15----------------15--14~--15------|
Ab|--------------------------------------------------------|
Eb|--------------------------------------------------------|

eb|------------------------------------------------------|
Bb|-12--10-------------------12--10----------------------|
Gb|---------12\9--9\7--7--9----------12\7--7/9--9-(9)/12-|
Db|------------------------------------------------------|
Ab|------------------------------------------------------|
Eb|------------------------------------------------------|

eb|--------------------------------------------------------|
Bb|--------------------------------------------------------|
Gb|-16b17-16~---------------16-16b17-16~---------------16\-|
Db|------------15--14~--15----------------15--14~--15------|
Ab|----------------------a---------------------------------|
Eb|--------------------------------------------------------|

eb|-----------------------------------------------------------|
Bb|-12--10-------------------12--10---------------------------|
Gb|---------12\9--9\7--7--9-------a--12\7--7/9--9-(9)/12\9-9~-|
Db|-----------------------------------------------------------|
Ab|-----------------------------------------------------------|
Eb|-----------------------------------------------------------|

End guitar fill


Play Riff 1

-----------------------------------------------------------------

8. SCARRED
Tuning: Eb

Riff 1
Guitar 1 (Clean)   x2
eb|-----------------|--------------------|
Bb|-----------------|--------------------|
Gb|-----------------|--------------------|
Db|-----2-------2---|-----3----------3---|
Ab|---2---2---2---0-|---1---1------1---1-|
Eb|-0-------0-------|-1----------1-------|
                   x2
eb|-----------------|--------------------------|
Bb|-----------------|--------------------------|
Gb|-----------------|--------------------------|
Db|-----2-------2---|-----3----------3-------3-|
Ab|---2---2---2---0-|---1---1------1---1---1---|
Eb|-0-------0-------|-1----------1-------1-----|


Guitar 2 (Distortion)
eb|------------------------13-15--13-12-10-|
Bb|-12-13-12-10---13--12-------------------|
Gb|----------------------------------------|
Db|----------------------------------------|
Ab|----------------------------------------|
Eb|----------------------------------------|

eb|------------------------13-15--13-12-10--(10)b12-|
Bb|-12-13-12-10---13--12----------------------------|
Gb|-------------------------------------------------|
Db|-------------------------------------------------|
Ab|-------------------------------------------------|
Eb|-------------------------------------------------|

Guitar 3 (Distortion)
eb|-10-12-10--8---12--10----17-18--17-15-13-|
Bb|-----------------------------------------|
Gb|-----------------------------------------|
Db|-----------------------------------------|
Ab|-----------------------------------------|
Eb|-----------------------------------------|

eb|-10-12-10--8---12--10----17-18--17-15-13--(13)b15-|
Bb|--------------------------------------------------|
Gb|--------------------------------------------------|
Db|--------------------------------------------------|
Ab|--------------------------------------------------|
Eb|--------------------------------------------------|



Riff 2 (Distortion)
eb|----------------------------------|
Bb|----------------------------------|
Gb|----------------------------------|
Db|---------------------3------3---3-|
Ab|-2----2-2-2-2--------1----1-1-1-1-|
Eb|-0----0-0-0-0--------1----1-1-1-1-|
         *   *               *   *

Riff 3
Guitar 1 (Clean)
eb|-----------------------------------------|
Bb|-----------------------------------------|
Gb|-----------------------------------------|
Db|------2---------------3-----------3------|
Ab|---------2----------1---1------1-----1---|
Eb|-0----------------1----------1---------1-|
   "Darkness calls..."

Guitar 2 (Distortion, harmony note in () )
eb|-13~~--13h15-13h15-13-12---10-12------------------------|
Bb|---------------------------------12---12b13-[slow bend]-|
Gb|--------------------------------------(9b10)------------|
Db|--------------------------------------------------------|
Ab|--------------------------------------------------------|
Eb|--------------------------------------------------------|


Play Riff 2
Play Riff 3    "It attacks me..."

Guitar fill over Riff 3 (harmony notes in () )
eb|-13~~--13h15-13h15-13-12---10-12----|
Bb|---------------------------------12-|
Gb|------------------------------------|
Db|------------------------------------|
Ab|------------------------------------|
Eb|------------------------------------|

eb|-----------------------|
Bb|-12b13r12--10----------|
Gb|-(9b10r9----7)--12-11--|
Db|---------------(10--9)-|
Ab|-----------------------|
Eb|-----------------------|

Play Riff 2    "I brought this all..."


Riff 4
Guitar 1 (Clean)
eb|-------------------------------------|
Bb|-------------------------------------|
Gb|-------------------------------------|
Db|---9---9---9---9---10---10---10---10-|
Ab|-7---7---7---7---7----7----7----7----|
Eb|-------------------------------------|
    * * * * * * * * *  * *  * *  * *  *
eb|---------------------------------|
Bb|---------------------------------|
Gb|---------------------------------|
Db|---7---7---7---7---9---9---9---9-|
Ab|-7---7---7---7---7---7---7---7---|
Eb|---------------------------------|
    * * * * * * * * * * * * * * * * 

Guitar 2 (Distortion)
eb|----------------------------------|
Bb|----------------------------------|
Gb|----------------------------------|
Db|-2---------5---------3----------2-|
Ab|-2---------5---------3----------2-|
Eb|-0---------3---------1----------0-|
   "And so it's begun..."


Riff 5
Guitar 1
eb|--------------------------------|
Bb|--------------------------------|
Gb|--------------------------------|
Db|--------------------------------|
Ab|-2------------------------------|
Eb|-0-0000000000000000000000000000-|
      ****************************
eb|--------------------------------|
Bb|--------------------------------|
Gb|--------------------------------|
Db|--------------------------------|
Ab|-3------------------------------|
Eb|-1-1111111111111111111111111111-|
      ****************************

Guitar 2
eb|------------------------------------------|
Bb|------------------------------------------|
Gb|---------------------------------7-9-7----|
Db|-9-10-9-7----6--6-7-9-9/10----7--------10-|
Ab|------------------------------------------|
Eb|------------------------------------------|

Guitar 3 (comes in the 3rd and 4th times)
eb|------------------------------------------|
Bb|--------------------------------8-10-8----|
Gb|-9-10-9-7------------7-9---------------10-|
Db|-------------9--9-10--------10------------|
Ab|------------------------------------------|
Eb|------------------------------------------|


Riff 6
Guitar 1
eb|---------------------------------------|
Bb|---------------------------------------|
Gb|---------------------------------------|
Db|-999999-777777-6666-666666-777777-9999-|
Ab|---------------------------------------|
Eb|---------------------------------------|
    ****** ****** **** ****** ****** **** 
eb|---------------------------------------------|
Bb|---------------------------------------------|
Gb|---------------------------------------------|
Db|-101010101010-999999-7777-999999-777777-6666-|
Ab|---------------------------------------------|
Eb|---------------------------------------------|
     * * * * * * ****** **** ****** ****** ****

Guitar 2 (Comes in the 2nd time)
eb|-------------------------------------------------------------|
Bb|-------------------------------------------------------------|
Gb|-------------------------------------------------------------|
Db|-121212121212-101010101010-9999-999999-101010101010-12121212-|
Ab|-------------------------------------------------------------|
Eb|-------------------------------------------------------------|
     * * * * * *  * * * * * * **** ******  * * * * * *  * * * *  
eb|-------------------------------------------------------------------|
Bb|-------------------------------------------------------------------|
Gb|-------------------------------------------------------------------|
Db|-141414141414-121212121212-10101010-121212121212-101010101010-9999-|
Ab|-------------------------------------------------------------------|
Eb|-------------------------------------------------------------------|
     * * * * * *  * * * * * *  * * * *  * * * * * *  * * * * * * ****

Riff 7
Guitar 1
eb|----------------------------------------|
Bb|----------------------------------------|
Gb|-9--7-------------------------7---------|
Db|-------10--9--7--6--7--9--10------10--9-|
Ab|----------------------------------------|
Eb|----------------------------------------|

eb|--------------------------------------|
Bb|--------------------------------------|
Gb|-9--7---------------------------------|
Db|-------10--9--7--6--7--9--10--9--7--6-|
Ab|--------------------------------------|
Eb|--------------------------------------|

Guitar 2 (Comes in the 2nd time)
eb|------------------------------------|
Bb|-9----------------------------------|
Gb|---10--9--7-----------7--9--10--9-7-|
Db|-------------10-9-10----------------|
Ab|------------------------------------|
Eb|------------------------------------|

eb|-----------------------------------|
Bb|-9---------------------------------|
Gb|---10--9--7-----------7--9--7------|
Db|-------------10-9-10----------10-9-|
Ab|-----------------------------------|
Eb|-----------------------------------|



Play Riff 2   "I brought this all..."

Riff 2a
eb|-----------------------------|
Bb|-----------------------------|
Gb|-----------------------------|
Db|-----------------------------|
Ab|-2--2-2-2-2-2-2--2-2-2-2-2-2-|
Eb|-0--0-0-0-0-0-0--0-0-0-0-0-0-|
       * * *   *    * * *   * * 
   "I brought this all..."
eb|-----------------------------|
Bb|-----------------------------|
Gb|-----------------------------|
Db|-3--------3---3--------3---3-|
Ab|-1--1-1-1-1-1-1--1-1-1-1-1-1-|
Eb|-1--1-1-1-1-1-1--1-1-1-1-1-1-|
       * * *   *    * * *   *
eb|-----------------------------|
Bb|-----------------------------|
Gb|-----------------------------|
Db|-----------------------------|
Ab|-2--2-2-2-2-2-2--2-2-2-2-2-2-|
Eb|-0--0-0-0-0-0-0--0-0-0-0-0-0-|
       * * *   *    * * *   * * 
   "I brought this all..."
eb|--------------------------------|
Bb|--------------------------------|
Gb|--------------------------------|
Db|-3--------3---3--------3--------|
Ab|-1--1-1-1-1-1-1--1-1-1-1-x/-7-7-|
Eb|-1--1-1-1-1-1-1--1-1-1-1-x/-5-5-|
       * * *   *    * * *

--------------------------------------------------

9. SLAVE TO THE DARK
Tuning: Eb

Riff 1 (Clean)                     x2
eb|---------------------------------|
Bb|---------------------------------|
Gb|---------------------------------|
Db|-2-----2-----2-----2-----3---3---|
Ab|---0-0---0-0---0-0---0-0---0---0-|
Eb|---------------------------------|
   "A twisted state of mind..."
eb|---------------------------------|
Bb|---------------------------------|
Gb|---------------------------------|
Db|-0-----0-----0---5-----5-----3---|
Ab|---0-0---0-0---0---0-0---0-0---0-|
Eb|---------------------------------|
   "One of which..."
eb|---------------------------------|
Bb|---------------------------------|
Gb|---------------------------------|
Db|-2-----2-----2-----2-----3---3---|
Ab|---0-0---0-0---0-0---0-0---0---0-|
Eb|---------------------------------|
   "...one that's coming true..."


Riff 2 (Distortion)
eb|----------------------------|
Bb|----------------------------|
Gb|----------------------------|
Db|----------------------------|
Ab|-7----7----7----7----8--8\7-|
Eb|-5----5----5----5----6--6\5-|

eb|---------------------------|
Bb|---------------------------|
Gb|---------------------------|
Db|---------------------------|
Ab|-7----7----7----7----8--8\-|
Eb|-5----5----5----5----6--6\-|

eb|---------------------------|
Bb|---------------------------|
Gb|---------------------------|
Db|---------------------------|
Ab|-5----5----5--10---10----8-|
Eb|-3----3----3---8----8----6-|

eb|----------------------------|
Bb|----------------------------|
Gb|----------------------------|
Db|----------------------------|
Ab|-7----7----7----7----8--8\7-|
Eb|-5----5----5----5----6--6\5-|



Riff 3
eb|--------------------------------|
Bb|--------------------------------|
Gb|--------------------------------|
Db|--------------------------------|
Ab|-7-7-7-7-7-7-7-7-7-7-7-7-8--8\7-|
Eb|-5-5-5-5-5-5-5-5-5-5-5-5-6--6\5-|
      * *   * *   * *   * *
   "I called upon..."
eb|-------------------------------|
Bb|-------------------------------|
Gb|-------------------------------|
Db|-------------------------------|
Ab|-7-7-7-7-7-7-7-7-7-7-7-7-8--8\-|
Eb|-5-5-5-5-5-5-5-5-5-5-5-5-6--6\-|
      * *   * *   * *   * *
eb|-------------------------------------|
Bb|-------------------------------------|
Gb|-------------------------------------|
Db|-------------------------------------|
Ab|-5-5-5-5-5-5-5---10-1010-10-10---8---|
Eb|-3-3-3-3-3-3-3-0--8--8-8--8--8-0-6-0-|
      * *   * *   *     * *     * *   * 
   "To grant what I desire..."
eb|--------------------------------|
Bb|--------------------------------|
Gb|--------------------------------|
Db|--------------------------------|
Ab|-7-7-7-7-7-7-7-7-7-7-7-7-8--8\7-|
Eb|-5-5-5-5-5-5-5-5-5-5-5-5-6--6\5-|
      * *   * *   * *   * *
   "...to my knees..."

Final time:
eb|---------------------------------|
Bb|---------------------------------|
Gb|---------------------------------|
Db|---------------------------------|
Ab|-7-7-7-7-7-7-7-7-7-7-7-7-8-8-8-8-|
Eb|-5-5-5-5-5-5-5-5-5-5-5-5-6-6-6-6-|
      * *   * *   * *   * *


Riff 4   
Guitar 1             x2
eb|-------------------|
Bb|-------------------|
Gb|-------------------|
Db|-------------------|
Ab|----7--8--7--5--7--|
Eb|-5-----------------|

eb|-------------------|
Bb|-------------------|
Gb|-------------------|
Db|-------------------|
Ab|----5--7--5--3--5--|
Eb|-3-----------------|

eb|--------------------|
Bb|--------------------|
Gb|--------------------|
Db|--------------------|
Ab|----7--8--7--5--7p0-|
Eb|-5------------------|

Guitar 2             x2
eb|-------------------|
Bb|-------------------|
Gb|-------------------|
Db|----5--7--5--4--5--|
Ab|-------------------|
Eb|-5-----------------|

eb|-------------------|
Bb|-------------------|
Gb|-------------------|
Db|----3--5--3--2--3--|
Ab|-------------------|
Eb|-3-----------------|

eb|-------------------|
Bb|-------------------|
Gb|-------------------|
Db|----5--7--5--4--5--|
Ab|-------------------|
Eb|-5-----------------|


Play Riff 3    "I signed my name..."
Play Riff 4    "All at once..."


Riff 5 (Solo Rhythm)
                 x3
eb|---------------|------------|
Bb|---------------|------------|
Gb|---------------|------------|
Db|---------------|------------|
Ab|-5/7-7-7-7-7---|--5/7-7-8-8-|
Eb|-3/5-5-5-5-5-0-|--3/5-5-6-6-|
        * *   * *        *
                 x2
eb|---------------|---------------------------------|
Bb|---------------|---------------------------------|
Gb|---------------|---------------------------------|
Db|---------------|---------------------------------|
Ab|-3/5-5-5-5-5-5-|-3/5-5-5-5-5---10-10-10-10--8----|
Eb|-1/3-3-3-3-3-3-|-1/3-3-3-3-3-0--8--8--8--8--6--0-|
        * *   * *       * *   * *                 *


Solo
eb|-t13h17t13p12p10p0h10h12h13-20t13p12p10p0h10h12h13-|
Bb|---------------------------------------------------|
Gb|---------------------------------------------------|
Db|---------------------------------------------------|
Ab|---------------------------------------------------|
Eb|---------------------------------------------------|

eb|-17t13p12p10p0h10h12h13-19t13p12p10p0h10h12h13-|
Bb|-----------------------------------------------|
Gb|-----------------------------------------------|
Db|-----------------------------------------------|
Ab|-----------------------------------------------|
Eb|-----------------------------------------------|

eb|-17t13p12p10p0h10h12h13-19t13p12p10p0h10h12h13-|
Bb|-----------------------------------------------|
Gb|-----------------------------------------------|
Db|-----------------------------------------------|
Ab|-----------------------------------------------|
Eb|-----------------------------------------------|

eb|-20t13p12p10p0h10h12h13-22t13p12p10p0h10h12-|
Bb|--------------------------------------------|
Gb|--------------------------------------------|
Db|--------------------------------------------|
Ab|--------------------------------------------|
Eb|--------------------------------------------|

eb|-24t20-24t19-24t17-24t19-24t17-24t15-24t17-24t15-24t13-|
Bb|-------------------------------------------------------|
Gb|-------------------------------------------------------|
Db|-------------------------------------------------------|
Ab|-------------------------------------------------------|
Eb|-------------------------------------------------------|

eb|-24t15-24t13-24t12-24t12-24t13-24t15-24t13-24t15-24t17-|
Bb|-------------------------------------------------------|
Gb|-------------------------------------------------------|
Db|-------------------------------------------------------|
Ab|-------------------------------------------------------|
Eb|-------------------------------------------------------|

eb|-24t15-24t17-24t19-24t20~----(20)p17-t20-|
Bb|-----------------------------------------|
Gb|-----------------------------------------|
Db|-----------------------------------------|
Ab|-----------------------------------------|
Eb|-----------------------------------------|

eb|-(20)p19p17-19b20r19p17-19p17-19b20r19p17-19p17-19b20r19p17-|
Bb|------------------------------------------------------------|
Gb|------------------------------------------------------------|
Db|------------------------------------------------------------|
Ab|------------------------------------------------------------|
Eb|------------------------------------------------------------|

eb|-19p17-19b20r19p17-19p17-19b20r19p17-|
Bb|-------------------------------------|
Gb|-------------------------------------|
Db|-------------------------------------|
Ab|-------------------------------------|
Eb|-------------------------------------|

eb|-19p17-19p17-22b24~--(24)r22-|
Bb|-----------------------------|
Gb|-----------------------------|
Db|-----------------------------|
Ab|-----------------------------|
Eb|-----------------------------|

Guitar 1
eb|-20-20-20\19-19-19\17-17-17/19-19\-15~-|
Bb|---------------------------------------|
Gb|---------------------------------------|
Db|---------------------------------------|
Ab|---------------------------------------|
Eb|---------------------------------------|

eb|-20-20\19-17----17-19-19b20~-|
Bb|-------------20--------------|
Gb|-----------------------------|
Db|-----------------------------|
Ab|-----------------------------|
Eb|-----------------------------|

Guitar 2
eb|-24-24-24\22-22-22\20-20-20/22-22\-19~-|
Bb|---------------------------------------|
Gb|---------------------------------------|
Db|---------------------------------------|
Ab|---------------------------------------|
Eb|---------------------------------------|

eb|-20-/24-22-20----20-22-22b24~-|
Bb|--------------24--------------|
Gb|------------------------------|
Db|------------------------------|
Ab|------------------------------|
Eb|------------------------------|

End Solo



Riff 6 
Guitar 1
eb|-------------------------|
Bb|-------------------------|
Gb|-------------------------|
Db|-------------------------|
Ab|----7--8-/10--8--7--5--7-|
Eb|-5-----------------------|

eb|-------------------------------|
Bb|-------------------------------|
Gb|-------------------------------|
Db|-------------------------------|
Ab|--8--7--5----------------------|
Eb|-----------3----3--/7--5----5/-|

eb|-------------------|
Bb|-------------------|
Gb|-------------------|
Db|-------------------|
Ab|-10-10-10-10--8----|
Eb|--8--8--8--8--6--0-|
                    *

Guitar 2
eb|----12-13-13/15-13-12-10--12~-|
Bb|-10---------------------------|
Gb|------------------------------|
Db|------------------------------|
Ab|------------------------------|
Eb|------------------------------|

eb|-12b13r12-10-----------------------|
Bb|--------------8~----8-(8)/12--10~--|
Gb|-----------------------------------|
Db|-----------------------------------|
Ab|-----------------------------------|
Eb|-----------------------------------|

Guitar 3 (Comes in the last time)
eb|----15-17-17/19-17-15-13--15~-|
Bb|-13---------------------------|
Gb|------------------------------|
Db|------------------------------|
Ab|------------------------------|
Eb|------------------------------|

eb|-15b17r15-13------------------------|
Bb|-------------12~----12-(12)/15--13~-|
Gb|------------------------------------|
Db|------------------------------------|
Ab|------------------------------------|
Eb|------------------------------------|



Play Riff 5    Solo Rhythm

Solo                                   x4
eb|----------17----------------17-------|
Bb|-------17----20p17-------17----20p17-|
Gb|-19b21-------------19b21-------------|
Db|-------------------------------------|
Ab|-------------------------------------|
Eb|-------------------------------------|

eb|-20b21--[20]21r20--17~--------------|
Bb|-20b21--[20]21r20--17~-------20-20~-|
Gb|--------------------------19----19~-|
Db|------------------------------------|
Ab|------------------------------------|
Eb|------------------------------------|

eb|----------22----------20----------19-17~-|
Bb|-------------20----------19--------------|
Gb|-19-19-19-------19-17-------17-16--------|
Db|-----------------------------------------|
Ab|-----------------------------------------|
Eb|-----------------------------------------|

eb|----------20----------19-------19-19\-15~-|
Bb|-------------19----------17---------------|
Gb|-17-17-17-------17-16-------16------------|
Db|------------------------------------------|
Ab|------------------------------------------|
Eb|------------------------------------------|

Guitar 1
eb|--------------------------------------------------|
Bb|--------------------------------------------12-13-|
Gb|----------------------12--------------12-14-------|
Db|-------------12-14-15-----12-12-14-15-------------|
Ab|-12-12-14-15--------------------------------------|
Eb|--------------------------------------------------|

eb|-13-13-13-12--------------------------------|
Bb|-------------15-13-12----------12b13r12-----|
Gb|----------------------14-13-14----------14~-|
Db|--------------------------------------------|
Ab|--------------------------------------------|
Eb|--------------------------------------------|

Guitar 2
eb|--------------------------------------------------|
Bb|-----------------------------------------------17-|
Gb|----------------------16--------------16-17-19----|
Db|-------------15-17-19-----15-15-17-19-------------|
Ab|-15-15-17-19--------------------------------------|
Eb|--------------------------------------------------|

eb|-17-17-17-15-13-----------------------------|
Bb|----------------17-15-13----13-15b17r15-13~-|
Gb|-------------------------16-----------------|
Db|--------------------------------------------|
Ab|--------------------------------------------|
Eb|--------------------------------------------|

End Solo

Play Riff 3    "And so I must..."
Play Riff 4    "All at once..."


Riff 6a
Guitar 1
eb|-------------------------|
Bb|-------------------------|
Gb|-------------------------|
Db|-------------------------|
Ab|----7--8-/10--8--7--5--7-|
Eb|-5-----------------------|

eb|-------------------------------|
Bb|-------------------------------|
Gb|-------------------------------|
Db|-------------------------------|
Ab|--8--7--5----------------------|
Eb|-----------3----3--/7--5----5/-|

eb|-------------------|
Bb|-------------------|
Gb|-------------------|
Db|-------------------|
Ab|-10-10-10-10--8----|
Eb|--8--8--8--8--6--0-|
                    *
Last time:
eb|---------------------|
Bb|---------------------|
Gb|---------------------|
Db|---------------------|
Ab|-10-10-10-10--8----2-|
Eb|--8--8--8--8--6--0-0-|
                    *

Guitar 2
eb|-------------------------|
Bb|-------------------------|
Gb|-------------------------|
Db|----5--7--/9--7--5--3--5-|
Ab|-------------------------|
Eb|-5-----------------------|

eb|-------------------------------|
Bb|-------------------------------|
Gb|-------------------------------|
Db|--7--5--3----------------------|
Ab|-------------------------------|
Eb|-----------3----3--/7--5----5/-|

eb|-------------------|
Bb|-------------------|
Gb|-------------------|
Db|-------------------|
Ab|-10-10-10-10--8----|
Eb|--8--8--8--8--6--0-|
                    *
Last time:
eb|---------------------|
Bb|---------------------|
Gb|---------------------|
Db|---------------------|
Ab|-10-10-10-10--8----2-|
Eb|--8--8--8--8--6--0-0-|
                    *

Guitar 3
eb|----12-13-13/15-13-12-10--12~-|
Bb|-10---------------------------|
Gb|------------------------------|
Db|------------------------------|
Ab|------------------------------|
Eb|------------------------------|

eb|-12b13r12-10-----------------------|
Bb|--------------8~----8-(8)/12--10~--|
Gb|-----------------------------------|
Db|-----------------------------------|
Ab|-----------------------------------|
Eb|-----------------------------------|

Guitar 4 (Comes in the last time)
eb|----15-17-17/19-17-15-13--15~-|
Bb|-13---------------------------|
Gb|------------------------------|
Db|------------------------------|
Ab|------------------------------|
Eb|------------------------------|

eb|-15b17r15-13------------------------|
Bb|-------------12~----12-(12)/15--13~-|
Gb|------------------------------------|
Db|------------------------------------|
Ab|------------------------------------|
Eb|------------------------------------|

Last chords rings into "A Question Of Heaven".

-----------------------------------------------------------

10. A QUESTION OF HEAVEN
Tuning: Eb

Riff 1 (Acoustic)
eb|----------7--------------7--------|
Bb|-------0-----0--------------0-----|
Gb|------0--------0--------------0---|
Db|-----5-----------5-----5--------5-|
Ab|----7----------------7------------|
Eb|-0-----------------0--------------|
            "The time is close now..."
eb|-------5-------------5-------|
Bb|---------0-------------0-----|
Gb|-----0-----0-------0-----0---|
Db|---4---------4---4---------4-|
Ab|-5-------------5-------------|
Eb|-----------------------------|
            "...the end is near..."
eb|-------3-------------3-------|
Bb|---------3-------------3-----|
Gb|-----0-----0-------0-----0---|
Db|---2---------2---2---------0-|
Ab|-3-------------3-------------|
Eb|-----------------------------|
            "My walk through..."
eb|-----------------|
Bb|-----------------|
Gb|-------0---------|
Db|-----0-----------|
Ab|---2-------0-----|
Eb|-3-------2---3-2-|



Riff 2 (Distortion)
Guitar 1
eb|--------------------------------------------------------|
Bb|--------------------------------------------------------|
Gb|--------------------------------------------------------|
Db|--------9--9\---------9--9\---------7--7\---------7--7\-|
Ab|-2------7--7\--2------7--7\--2------5--5\--2------5--5\-|
Eb|-0-0000--------0-0000--------0-0000--------0-0000-------|
    * ****        * ****        * ****        * ****     

eb|----------------------------------------------|
Bb|----------------------------------------------|
Gb|------------------------------------0---------|
Db|--------5--5---------7--7---------0-----------|
Ab|-2------3--3--2------5--5-------2-------0-----|
Eb|-0-0000-------0-0000-------00-3-------2---3-2-|
    * ****       * ****       ** * * * * * * * * 

Guitar 2                                             x2
eb|---------------------------------------------------|
Bb|---------------------------------------------------|
Gb|---------------------------------------------------|
Db|---------------------------------------------------|
Ab|-7~----9-10--5~----7-9--3~----5~----10~----9--10-9-|
Eb|---------------------------------------------------|

Guitar 3                                          x2
eb|------------------------------------------------|
Bb|------------------------------------------------|
Gb|------------------------------------------------|
Db|-5~----7-9--4~----5-7--2~----4~----9~----7--9-7-|
Ab|------------------------------------------------|
Eb|------------------------------------------------|


Riff 3
eb|----------------------------|
Bb|----------------------------|
Gb|----------------------------|
Db|----------------------------|
Ab|--------2-----------2-----3-|
Eb|-000000-0----000000-0--00-1-|
    ******      ******    **
   "What exactly is the meaning of this..."

Play Riff 2
Play Riff 3   "Lord I pound..."
Play Riff 2

Lead into the acoustic part
eb|----------|
Bb|----------|
Gb|----------|
Db|----------|
Ab|--------2-|
Eb|-000000-0-|
    ******

Acoustic bridge:
(Listen to song for strumming pattern)

Lead into next section:
eb|-0--0-0-0--0-0--0-0-0-0--0-0-|
Bb|-0--0-0-0--0-0--0-0-0-0--0-0-|
Gb|-0--0-0-0--0-0--0-0-0-0--0-0-|
Db|-2--2-2-2--2-2--2-2-2-2--2-2-|
Ab|-2--2-2-2--2-2--2-2-2-2--2-2-|
Eb|-0--0-0-0--0-0--0-0-0-0--0-0-|

Riff 4
eb|-0--0-0-0--0-0-0-0-0-0--0-0-0-|
Bb|-0--0-0-0--0-0-0-0-0-0--0-0-0-|
Gb|-0--0-0-0--0-0-0-0-0-0--0-0-0-|
Db|-2--2-2-2--2-2-2-2-2-2--2-2-2-|
Ab|-2--2-2-2--2-2-2-2-2-2--2-2-2-|
Eb|-0--0-0-0--0-0-0-0-0-0--0-0-0-|
   "I did what I thought was right..."

eb|-3--3-3-3--3-3-3-3-3-3--3-3-3-|
Bb|-0--0-0-0--0-0-0-0-0-0--0-0-0-|
Gb|-0--0-0-0--0-0-0-0-0-0--0-0-0-|
Db|-0--0-0-0--0-0-0-0-0-0--0-0-0-|
Ab|-2--2-2-2--2-2-2-2-2-2--2-2-2-|
Eb|-3--3-3-3--3-3-3-3-3-3--3-3-3-|
   "All for the love of my life..."

eb|-2--2-2-2--2-2-2-2-2-2--2-2-2--0-|
Bb|-3--3-3-3--3-3-3-3-3-3--3-3-3--0-|
Gb|-2--2-2-2--2-2-2-2-2-2--2-2-2----|
Db|-0--0-0-0--0-0-0-0-0-0--0-0-0----|
Ab|---------------------------------|
Eb|---------------------------------|
   "I know it's sad but..."
eb|-0--0--0-0--0-0-0-0--0-0-0-|
Bb|-0--0--0-0--0-0-0-0--0-0-0-|
Gb|-0--0--0-0--0-0-0-0--0-0-0-|
Db|-2--2--2-2--2-2-2-2--2-2-2-|
Ab|-2--2--2-2--2-2-2-2--2-2-2-|
Eb|-0--0--0-0--0-0-0-0--0-0-0-|
   "...true..."

Repeat Riff 4 til distortion kicks in.
  
After first break, guitar 2 (Clean) plays this:
eb|-----0-----------------0------|
Bb|---8----8------------8----8---|
Gb|-9--------9--------7--------7-|
Db|------------------------------|
Ab|------------------------------|
Eb|------------------------------|

eb|-----0----------------0------|
Bb|---7---7------------8----8---|
Gb|-7-------7--------9--------9-|
Db|-----------------------------|
Ab|-----------------------------|
Eb|-----------------------------|

End acoustic part


Riff 5 (Distortion)
eb|------------------------------------------|
Bb|------------------------------------------|
Gb|-----------------------7-----7------------|
Db|-2-----2----5-----5----7-7-7-7----2-----2-|
Ab|-2-2-2-2----5-5-5-5----5-5-5-5----2-2-2-2-|
Eb|-0-0-0-0----3-3-3-3---------------0-0-0-0-|
      * *        * *        * *        * * 

Solo
eb|-----------------------------------------|
Bb|-----------------------------------------|
Gb|-----------------------------------------|
Db|---9----10--9-7-----9-10--/12--10-9-7-9~-|
Ab|-7----7----------7-----------------------|
Eb|-----------------------------------------|
    *    *  *  * *  *
eb|--------------------------|
Bb|--------------------------|
Gb|--------------------------|
Db|-10-9-7~----10-9----------|
Ab|-----------------9~----9\-|
Eb|-----------------------a--|

eb|--------------------------------|
Bb|--------------------------------|
Gb|--------------------------------|
Db|-2-4-5-/7-5-4--5-4----4---------|
Ab|-------------------7----7-5-7~~-|
Eb|--------------------------------|

eb|-----------------------------------|
Bb|---10-12-13-12~--12-13--12--10-----|
Gb|-9------------------------------12-|
Db|-----------------------------------|
Ab|-----------------------------------|
Eb|-----------------------------------|

eb|-------------------------------------|
Bb|---10-12-13-12~--12-13-15-15--13--12-|
Gb|-9-----------------------------------|
Db|-------------------------------------|
Ab|-------------------------------------|
Eb|-------------------------------------|

eb|----------------------------------|
Bb|----10-12-10~--------12-10--------|
Gb|-12------------------------11~--9-|
Db|----------------------------------|
Ab|----------------------------------|
Eb|----------------------------------|

Guitar 1
eb|-------------------------------------|
Bb|-------------------------------------|
Gb|-12h14p12-11-12-11-------------------|
Db|-------------------12-14-------------|
Ab|-------------------------12-10-12-7~-|
Eb|-------------------------------------|

Harmony Guitar
eb|-------------------------------------|
Bb|-12h14p12-10-12-10-------------------|
Gb|-------------------11-12-------------|
Db|-------------------------10-9-10-----|
Ab|---------------------------------10~-|
Eb|-------------------------------------|

End solo



Riff 5a
eb|----------------------------------------------|
Bb|----------------------------------------------|
Gb|-----------------------7-----7------7-9-9-----|
Db|-2-----2----5-----5----7-7-7-7------7-9-9---2-|
Ab|-2-2-2-2----5-5-5-5----5-5-5-5------5-7-7---2-|
Eb|-0-0-0-0----3-3-3-3---------------0-------0-0-|
      * *        * *        * *      *       * 
   "My spirit begins to rise..."
eb|----------------------------------------------|
Bb|----------------------------------------------|
Gb|-----------------------7-----7------7-9-9-----|
Db|-2-----2----5-----5----7-7-7-7------7-9-9---2-|
Ab|-2-2-2-2----5-5-5-5----5-5-5-5------5-7-7---2-|
Eb|-0-0-0-0----3-3-3-3---------------0-------0-0-|
      * *        * *        * *      *       * 
   "Now all I want is to die..."
eb|------------------|
Bb|------------------|
Gb|---7-9-9----------|
Db|---7-9-9---2------|
Ab|---5-7-7---2--2-2-|
Eb|-0-------0-0--0-0-|
    *       *    * *


Play Riff 5    [song fades out with this]


Ending leads:
Guitar 1
eb|-----------------------------|
Bb|-----------------------------|
Gb|-----------------------------|
Db|----9----------9--/12--10-9--|
Ab|-7-----------7---------------|
Eb|-----------------------------|

eb|---------------------------------|
Bb|---------------------------------|
Gb|---------------------------------|
Db|-10-9-7--------------------------|
Ab|---------10-9--------10-9-7--5-7-|
Eb|---------------------------------|

Guitar 2
eb|-----------------------------|
Bb|-----------------------------|
Gb|----7----------7--/12---9-7--|
Db|-5-----------5---------------|
Ab|-----------------------------|
Eb|-----------------------------|

eb|----------------------------------|
Bb|----------------------------------|
Gb|--9-7-7---------------------------|
Db|----------9-7---------9-7-5---4-5-|
Ab|----------------------------------|
Eb|----------------------------------|

Guitar 3 (Choir arranged for guitar)
eb|-----------------------------|
Bb|---12----------12-/15--13-12-|
Gb|-9-----------9---------------|
Db|-----------------------------|
Ab|-----------------------------|
Eb|-----------------------------|

eb|----------------------------------|
Bb|-10-----10-----------------10-12--|
Gb|-----12-----------12-11-9---------|
Db|----------------------------------|
Ab|----------------------------------|
Eb|----------------------------------|


This lick is done on the live version:
eb|-----------------------------|
Bb|-----------------------------|
Gb|-12p11p9----9~\-----9-11-12~-|
Db|---------12------12----------|
Ab|-----------------------------|
Eb|-----------------------------|

eb|-------------------------------|
Bb|-------------------------12-12-|
Gb|-12p11p9----9~\-----9-11-12-12-|
Db|---------12------12------------|
Ab|-------------------------------|
Eb|-------------------------------|

eb|---------------------------|
Bb|-/10---------------/10-10\-|
Gb|-----12-12--11--12---------|
Db|-------------a-------------|
Ab|---------------------------|
Eb|---------------------------|

eb|-------------------------------------------|
Bb|-/12-12\-/13-13\-/12-12~--12-12h13p12--12~-|
Gb|-------------------------------------14----|
Db|-------------------------------------------|
Ab|-------------------------------------------|
Eb|-------------------------------------------|



Notation:

10^        = bend a quarter step.
10b11      = bend a half step.
10b12      = bend a full step.
10b12r10   = bend and release.
[10]12     = pre-bend.
[10]12r10  = pre-bend and release.
{14}       = pick the 14th fret while holding the most 
             previous bend.
<17>       = touch the string above the 17th fret while 
             previous note(s) is(are) still ringing.

10b13*     = tremolo bar bend, from the 10th fret to the 13th fret.
7d4*       = tremolo bar dive, from the 7th fret to the 4th fret. 
12~*       = tremolo bar vibrato.

x   =  mute with fret-hand
*   =  palm mute
X\\ =  pick slide
h   =  hammer-on
p   =  pull-off
~   =  vibrato
t   =  finger tap
/   =  slide up
\   =  slide down
h.  =  natural harmonics
a   =  artificial harmonics
(9) =  ghost note
tm  =  trem picking
tr  =  trill







            
            
Suggest correction
Creating personal tab
Creating personal tab
You can edit any tab online and save it as your Personal.

You can edit, replace or remove any tab part or add personal notes – all changes will be seen only by you.

Personal tabs can be accessed anytime from any device, even offline.
Learn more »
Give kudos to tab author, rate the tab!
1 2 3 4 5
comments
print report bad tab
guest
You may want to rate the tab now too:
select rating
Wanna post a correction for this tab? Suggest correction