Oops, an error
Loading. Please wait.

Divide Devour tab

version 1
version 1

Whole song

Interactive

564 views 1 this week
no commentswrite comment
1 2 3 4 5
3 more votes to show rating
add to favorites
×
Save as Personal and add changes to this tab that will be seen only by you. Learn more ›
×
You can save this tab as Personal to edit and correct it or add notes. All changes will be seen only by you. Learn more »
launch autoscroll
font size
0
reset
how to read this tab
guitar tuner
edit
Autoscroll
slow
fast
+/-
esc
set tempo
stop
                              Divide and Devour                                 


                                 Iced Earth

Guitar 1

      PM PM PM PM PM PM PM PM PM PM PM        
      E  S  S  S  S  S  S  S  S  S  S  E  E   
D#||-----------------------------------------|
A#||-----------------------------------------|
F#||-----------------------------------------|
C#||-----------------------------------------|
G#||-----------------------------------4-----|
D#||--0--2--2--2--2--0--0--2--0--2--0--2-----|


  PM PM PM PM PM PM PM PM PM PM PM        
  E  S  S  S  S  S  S  S  S  S  S  E  E   
-----------------------------------------|
-----------------------------------------|
-----------------------------------------|
-----------------------------------------|
-----------------------------------5-----|
--0--2--2--2--2--0--0--2--0--2--0--3-----|


  PM PM PM PM PM PM PM PM PM PM PM        
  E  S  S  S  S  S  S  S  S  S  S  E  E   
-----------------------------------------|
-----------------------------------------|
-----------------------------------------|
-----------------------------------------|
-----------------------------------4-----|
--0--2--2--2--2--0--0--2--0--2--0--2-----|


  PM PM PM PM PM PM PM PM PM PM PM        
  E  S  S  S  S  S  S  S  S  S  S  E  E   
-----------------------------------------|
-----------------------------------------|
-----------------------------------------|
-----------------------------------------|
-----------------------------------5-----|
--0--2--2--2--2--0--0--2--0--2--0--3-----|


  PM PM PM PM PM PM PM PM PM PM PM       
  E  S  S  S  S  S  S  S  S  S  S  Q     
----------------------------------------|
----------------------------------------|
----------------------------------------|
----------------------------------------|
-----------------------------------4----|
--0--2--2--2--2--0--0--2--0--2--0--2----|


     PM PM PM PM PM PM PM PM PM PM       
  E  S  S  S  S  S  S  S  S  S  S  Q     
----------------------------------------|
----------------------------------------|
----------------------------------------|
----------------------------------------|
-----------------------------------5----|
--0--2--2--2--2--0--0--2--0--2--0--3----|


     PM PM PM PM PM PM PM PM PM PM       
  E  S  S  S  S  S  S  S  S  S  S  Q     
----------------------------------------|
----------------------------------------|
----------------------------------------|
----------------------------------------|
-----------------------------------4----|
--0--2--2--2--2--0--0--2--0--2--0--2----|


     PM PM PM PM PM PM PM PM PM PM       
  E  S  S  S  S  S  S  S  S  S  S  Q     
----------------------------------------|
----------------------------------------|
----------------------------------------|
----------------------------------------|
-----------------------------------5----|
--0--2--2--2--2--0--0--2--0--2--0--3----|


     PM PM PM PM PM PM PM PM PM PM       
  E  S  S  S  S  S  S  S  S  S  S  Q     
----------------------------------------|
----------------------------------------|
----------------------------------------|
----------------------------------------|
-----------------------------------4----|
--0--2--2--2--2--0--0--2--0--2--0--2----|


     PM PM PM PM PM PM PM PM PM PM       
  E  S  S  S  S  S  S  S  S  S  S  Q     
----------------------------------------|
----------------------------------------|
----------------------------------------|
----------------------------------------|
-----------------------------------5----|
--0--2--2--2--2--0--0--2--0--2--0--3----|


     PM PM PM PM PM PM PM PM PM PM       
  E  S  S  S  S  S  S  S  S  S  S  Q     
----------------------------------------|
----------------------------------------|
----------------------------------------|
----------------------------------------|
-----------------------------------4----|
--0--2--2--2--2--0--0--2--0--2--0--2----|


     PM PM PM PM PM PM PM PM PM PM                           
  E  S  S  S  S  S  S  S  S  S  S  Q       W                 
----------------------------------------|-------------------|
----------------------------------------|-------------------|
----------------------------------------|-------------------|
----------------------------------------|-------------------|
-----------------------------------5----|--7----------------|
--0--2--2--2--2--0--0--2--0--2--0--3----|--5----------------|


                           PM PM PM PM PM PM PM PM PM PM       
  H        H            E  S  S  S  S  S  S  S  S  S  S  Q     
---------------------|----------------------------------------|
---------------------|----------------------------------------|
---------------------|----------------------------------------|
---------------------|----------------------------------------|
--5--------5\--------|-----------------------------------4----|
--3--------3\--------|--0--2--2--2--2--0--0--2--0--2--0--2----|


     PM PM PM PM PM PM PM PM PM PM                           
  E  S  S  S  S  S  S  S  S  S  S  Q       W                 
----------------------------------------|-------------------|
----------------------------------------|-------------------|
----------------------------------------|-------------------|
----------------------------------------|-------------------|
-----------------------------------5----|--7----------------|
--0--2--2--2--2--0--0--2--0--2--0--3----|--5----------------|


                           PM PM PM PM PM PM PM PM PM PM        
  H        H            E  S  S  S  S  S  S  S  S  S  S  E  E   
---------------------|-----------------------------------------|
---------------------|-----------------------------------------|
---------------------|-----------------------------------------|
---------------------|-----------------------------------------|
--5--------5\--------|-----------------------------------4-----|
--3--------3\--------|--0--2--2--2--2--0--0--2--0--2--0--2-----|


  PM PM PM PM PM PM PM PM PM PM PM        
  E  S  S  S  S  S  S  S  S  S  S  E  E   
-----------------------------------------|
-----------------------------------------|
-----------------------------------------|
-----------------------------------------|
-----------------------------------5-----|
--0--2--2--2--2--0--0--2--0--2--0--3-----|


  PM PM PM PM PM PM PM PM PM PM PM        
  E  S  S  S  S  S  S  S  S  S  S  E  E   
-----------------------------------------|
-----------------------------------------|
-----------------------------------------|
-----------------------------------------|
-----------------------------------4-----|
--0--2--2--2--2--0--0--2--0--2--0--2-----|


  PM PM PM PM PM PM PM PM PM PM PM        
  E  S  S  S  S  S  S  S  S  S  S  E  E   
-----------------------------------------|
-----------------------------------------|
-----------------------------------------|
-----------------------------------------|
-----------------------------------5-----|
--0--2--2--2--2--0--0--2--0--2--0--3-----|


  PM PM PM PM PM PM PM PM PM PM PM       
  E  S  S  S  S  S  S  S  S  S  S  Q     
----------------------------------------|
----------------------------------------|
----------------------------------------|
----------------------------------------|
-----------------------------------4----|
--0--2--2--2--2--0--0--2--0--2--0--2----|


     PM PM PM PM PM PM PM PM PM PM       
  E  S  S  S  S  S  S  S  S  S  S  Q     
----------------------------------------|
----------------------------------------|
----------------------------------------|
----------------------------------------|
-----------------------------------5----|
--0--2--2--2--2--0--0--2--0--2--0--3----|


     PM PM PM PM PM PM PM PM PM PM       
  E  S  S  S  S  S  S  S  S  S  S  Q     
----------------------------------------|
----------------------------------------|
----------------------------------------|
----------------------------------------|
-----------------------------------4----|
--0--2--2--2--2--0--0--2--0--2--0--2----|


     PM PM PM PM PM PM PM PM PM PM       
  E  S  S  S  S  S  S  S  S  S  S  Q     
----------------------------------------|
----------------------------------------|
----------------------------------------|
----------------------------------------|
-----------------------------------5----|
--0--2--2--2--2--0--0--2--0--2--0--3----|


     PM PM PM PM PM PM PM PM PM PM       
  E  S  S  S  S  S  S  S  S  S  S  Q     
----------------------------------------|
----------------------------------------|
----------------------------------------|
----------------------------------------|
-----------------------------------4----|
--0--2--2--2--2--0--0--2--0--2--0--2----|


     PM PM PM PM PM PM PM PM PM PM       
  E  S  S  S  S  S  S  S  S  S  S  Q     
----------------------------------------|
----------------------------------------|
----------------------------------------|
----------------------------------------|
-----------------------------------5----|
--0--2--2--2--2--0--0--2--0--2--0--3----|


     PM PM PM PM PM PM PM PM PM PM       
  E  S  S  S  S  S  S  S  S  S  S  Q     
----------------------------------------|
----------------------------------------|
----------------------------------------|
----------------------------------------|
-----------------------------------4----|
--0--2--2--2--2--0--0--2--0--2--0--2----|


     PM PM PM PM PM PM PM PM PM PM                           
  E  S  S  S  S  S  S  S  S  S  S  Q       W                 
----------------------------------------|-------------------|
----------------------------------------|-------------------|
----------------------------------------|-------------------|
----------------------------------------|-------------------|
-----------------------------------5----|--7----------------|
--0--2--2--2--2--0--0--2--0--2--0--3----|--5----------------|


                           PM PM PM PM PM PM PM PM PM PM       
  H        H            E  S  S  S  S  S  S  S  S  S  S  Q     
---------------------|----------------------------------------|
---------------------|----------------------------------------|
---------------------|----------------------------------------|
---------------------|----------------------------------------|
--5--------5\--------|-----------------------------------4----|
--3--------3\--------|--0--2--2--2--2--0--0--2--0--2--0--2----|


     PM PM PM PM PM PM PM PM PM PM                           
  E  S  S  S  S  S  S  S  S  S  S  Q       W                 
----------------------------------------|-------------------|
----------------------------------------|-------------------|
----------------------------------------|-------------------|
----------------------------------------|-------------------|
-----------------------------------5----|--7----------------|
--0--2--2--2--2--0--0--2--0--2--0--3----|--5----------------|


                                 PM PM PM                        
  H        H            H        E  E  Q       W                 
---------------------|----------------------|-------------------|
---------------------|----------------------|-------------------|
---------------------|----------------------|-------------------|
---------------------|----------------------|-------------------|
--5--------5\--------|--4-------------------|--7----------------|
--3--------3\--------|--2--------2--0--2----|--5----------------|


                                                    PM PM PM    
  W                   H        H           H        E  E  Q     
--0----------------|--------------------|----------------------|
--0----------------|--------------------|----------------------|
--x----------------|--------------------|----------------------|
--2----------------|--5-----------------|----------------------|
--2----------------|--3--------5--------|--4-------------------|
--0----------------|-----------3--------|--2--------2--0--2----|


  W                   W                   H        H         
-------------------|--0----------------|--------------------|
-------------------|--0----------------|--------------------|
-------------------|--x----------------|--------------------|
-------------------|--2----------------|--5-----------------|
--7----------------|--2----------------|--3--------5--------|
--5----------------|--0----------------|-----------3--------|


           PM PM PM                                            
  H        E  E  Q       W                   W                 
----------------------|-------------------|--0----------------|
----------------------|-------------------|--0----------------|
----------------------|-------------------|--x----------------|
----------------------|-------------------|--2----------------|
--4-------------------|--7----------------|--2----------------|
--2--------2--0--2----|--5----------------|--0----------------|


                                PM PM PM                        
  H        H           H        E  E  Q       W                 
--------------------|----------------------|-------------------|
--------------------|----------------------|-------------------|
--------------------|----------------------|-------------------|
--5-----------------|----------------------|-------------------|
--3--------5--------|--4-------------------|--7----------------|
-----------3--------|--2--------2--0--2----|--5----------------|


  W                   H        H         
--0----------------|--------------------|
--0----------------|--------------------|
--x----------------|--------------------|
--2----------------|--5-----------------|
--2----------------|--3--------5--------|
--0----------------|-----------3--------|


     PM PM PM PM PM PM PM PM PM PM        
  E  S  S  S  S  S  S  S  S  S  S  E  E   
-----------------------------------------|
-----------------------------------------|
-----------------------------------------|
-----------------------------------------|
-----------------------------------4-----|
--0--2--2--2--2--0--0--2--0--2--0--2-----|


  PM PM PM PM PM PM PM PM PM PM PM        
  E  S  S  S  S  S  S  S  S  S  S  E  E   
-----------------------------------------|
-----------------------------------------|
-----------------------------------------|
-----------------------------------------|
-----------------------------------5-----|
--0--2--2--2--2--0--0--2--0--2--0--3-----|


  PM PM PM PM PM PM PM PM PM PM PM        
  E  S  S  S  S  S  S  S  S  S  S  E  E   
-----------------------------------------|
-----------------------------------------|
-----------------------------------------|
-----------------------------------------|
-----------------------------------4-----|
--0--2--2--2--2--0--0--2--0--2--0--2-----|


  PM PM PM PM PM PM PM PM PM PM PM        
  E  S  S  S  S  S  S  S  S  S  S  E  E   
-----------------------------------------|
-----------------------------------------|
-----------------------------------------|
-----------------------------------------|
-----------------------------------5-----|
--0--2--2--2--2--0--0--2--0--2--0--3-----|


  PM PM PM PM PM PM PM PM PM PM PM        
  E  S  S  S  S  S  S  S  S  S  S  E  E   
-----------------------------------------|
-----------------------------------------|
-----------------------------------------|
-----------------------------------------|
-----------------------------------4-----|
--0--2--2--2--2--0--0--2--0--2--0--2-----|


  PM PM PM PM PM PM PM PM PM PM PM        
  E  S  S  S  S  S  S  S  S  S  S  E  E   
-----------------------------------------|
-----------------------------------------|
-----------------------------------------|
-----------------------------------------|
-----------------------------------5-----|
--0--2--2--2--2--0--0--2--0--2--0--3-----|


  PM PM PM PM PM PM PM PM PM PM PM        
  E  S  S  S  S  S  S  S  S  S  S  E  E   
-----------------------------------------|
-----------------------------------------|
-----------------------------------------|
-----------------------------------------|
-----------------------------------4-----|
--0--2--2--2--2--0--0--2--0--2--0--2-----|


  PM PM PM PM PM PM PM PM PM PM PM                            
  E  S  S  S  S  S  S  S  S  S  S  E  E     W                 
-----------------------------------------|-------------------|
-----------------------------------------|-------------------|
-----------------------------------------|-------------------|
-----------------------------------------|-------------------|
-----------------------------------5-----|--4----------------|
--0--2--2--2--2--0--0--2--0--2--0--3-----|--2----------------|


  W                   W                    W                  
-------------------|--2----------------|---------------------|
-------------------|--2----------------|---------------------|
-------------------|-------------------|---------------------|
-------------------|-------------------|---------------------|
--L----------------|-------------------|--16\----------------|
--L----------------|-------------------|--14\----------------|


     PM PM PM PM PM PM    PM PM PM PM PM PM  
  E  S  S  S  S  S  S  E  S  S  S  S  S  S   
--------------------------------------------|
--------------------------------------------|
--------------------------------------------|
--------------------------------------------|
--------------------------------------------|
--0--2--2--2--2--2--2--0--2--2--2--2--2--2--|


  PM PM PM PM PM PM PM PM PM PM PM PM PM PM PM PM  
  S  S  S  S  S  S  S  S  S  S  S  S  S  S  S  S   
--------------------------------------------------|
--------------------------------------------------|
--------------------------------------------------|
--------------------------------------------------|
--4--4--4--4--2--2--2--2--------------------------|
--------------------------5--5--5--5--4--4--4--4--|


     PM PM PM PM PM PM    PM PM PM PM PM PM  
  E  S  S  S  S  S  S  E  S  S  S  S  S  S   
--------------------------------------------|
--------------------------------------------|
--------------------------------------------|
--------------------------------------------|
--------------------------------------------|
--0--2--2--2--2--2--2--0--2--2--2--2--2--2--|


  PM PM PM PM PM PM PM PM PM PM PM PM PM PM PM PM  
  S  S  S  S  S  S  S  S  S  S  S  S  S  S  S  S   
--------------------------------------------------|
--------------------------------------------------|
--------------------------------------------------|
--4--4--4--4--2--2--2--2--------------------------|
--------------------------5--5--5--5--4--4--4--4--|
--------------------------------------------------|


     PM PM PM PM PM PM    PM PM PM PM PM PM  
  E  S  S  S  S  S  S  E  S  S  S  S  S  S   
--------------------------------------------|
--------------------------------------------|
--------------------------------------------|
--------------------------------------------|
--------------------------------------------|
--0--2--2--2--2--2--2--0--2--2--2--2--2--2--|


  PM PM PM PM PM PM PM PM PM PM PM PM PM PM PM PM  
  S  S  S  S  S  S  S  S  S  S  S  S  S  S  S  S   
--------------------------------------------------|
--------------------------------------------------|
--------------------------------------------------|
--------------------------------------------------|
--4--4--4--4--2--2--2--2--------------------------|
--------------------------5--5--5--5--4--4--4--4--|


     PM PM PM PM PM PM    PM PM PM PM PM PM  
  E  S  S  S  S  S  S  E  S  S  S  S  S  S   
--------------------------------------------|
--------------------------------------------|
--------------------------------------------|
--------------------------------------------|
--------------------------------------------|
--0--2--2--2--2--2--2--0--2--2--2--2--2--2--|


  PM PM PM PM PM PM PM PM PM PM PM PM PM PM PM PM  
  S  S  S  S  S  S  S  S  S  S  S  S  S  S  S  S   
--------------------------------------------------|
--------------------------------------------------|
--------------------------------------------------|
--4--4--4--4--2--2--2--2--------------------------|
--------------------------5--5--5--5--4--4--4--4--|
--------------------------------------------------|


     PM PM PM PM PM PM    PM PM PM PM PM PM  
  E  S  S  S  S  S  S  E  S  S  S  S  S  S   
--------------------------------------------|
--------------------------------------------|
--------------------------------------------|
--------------------------------------------|
--------------------------------------------|
--0--2--2--2--2--2--2--0--2--2--2--2--2--2--|


  PM PM PM PM PM PM PM PM PM PM PM PM PM PM PM PM  
  S  S  S  S  S  S  S  S  S  S  S  S  S  S  S  S   
--------------------------------------------------|
--------------------------------------------------|
--------------------------------------------------|
--------------------------------------------------|
--4--4--4--4--2--2--2--2--------------------------|
--------------------------5--5--5--5--4--4--4--4--|


     PM PM PM PM PM PM    PM PM PM PM PM PM  
  E  S  S  S  S  S  S  E  S  S  S  S  S  S   
--------------------------------------------|
--------------------------------------------|
--------------------------------------------|
--------------------------------------------|
--------------------------------------------|
--0--2--2--2--2--2--2--0--2--2--2--2--2--2--|


  PM PM PM PM PM PM PM PM PM PM PM PM PM PM PM PM  
  S  S  S  S  S  S  S  S  S  S  S  S  S  S  S  S   
--------------------------------------------------|
--------------------------------------------------|
--------------------------------------------------|
--4--4--4--4--2--2--2--2--------------------------|
--------------------------5--5--5--5--4--4--4--4--|
--------------------------------------------------|


     PM PM PM PM PM PM    PM PM PM PM PM PM  
  E  S  S  S  S  S  S  E  S  S  S  S  S  S   
--------------------------------------------|
--------------------------------------------|
--------------------------------------------|
--------------------------------------------|
--------------------------------------------|
--0--2--2--2--2--2--2--0--2--2--2--2--2--2--|


  PM PM PM PM PM PM PM PM PM PM PM PM PM PM PM PM  
  S  S  S  S  S  S  S  S  S  S  S  S  S  S  S  S   
--------------------------------------------------|
--------------------------------------------------|
--------------------------------------------------|
--------------------------------------------------|
--4--4--4--4--2--2--2--2--------------------------|
--------------------------5--5--5--5--4--4--4--4--|


     PM PM PM PM PM PM    PM PM PM PM PM PM  
  E  S  S  S  S  S  S  E  S  S  S  S  S  S   
--------------------------------------------|
--------------------------------------------|
--------------------------------------------|
--------------------------------------------|
--------------------------------------------|
--0--2--2--2--2--2--2--0--2--2--2--2--2--2--|


  PM PM PM PM PM PM PM PM PM PM PM PM PM PM PM PM  
  S  S  S  S  S  S  S  S  S  S  S  S  S  S  S  S   
--------------------------------------------------|
--------------------------------------------------|
--------------------------------------------------|
--4--4--4--4--2--2--2--2--------------------------|
--------------------------5--5--5--5--4--4--4--4--|
--------------------------------------------------|


  PM PM PM PM PM PM PM PM PM PM PM        
  E  S  S  S  S  S  S  S  S  S  S  E  E   
-----------------------------------------|
-----------------------------------------|
-----------------------------------------|
-----------------------------------------|
-----------------------------------4-----|
--0--2--2--2--2--0--0--2--0--2--0--2-----|


  PM PM PM PM PM PM PM PM PM PM PM        
  E  S  S  S  S  S  S  S  S  S  S  E  E   
-----------------------------------------|
-----------------------------------------|
-----------------------------------------|
-----------------------------------------|
-----------------------------------5-----|
--0--2--2--2--2--0--0--2--0--2--0--3-----|


  PM PM PM PM PM PM PM PM PM PM PM        
  E  S  S  S  S  S  S  S  S  S  S  E  E   
-----------------------------------------|
-----------------------------------------|
-----------------------------------------|
-----------------------------------------|
-----------------------------------4-----|
--0--2--2--2--2--0--0--2--0--2--0--2-----|


  PM PM PM PM PM PM PM PM PM PM PM             PM PM PM PM PM PM PM PM       
  E  S  S  S  S  S  S  S  S  S  S  E  E     E  S  S  S  S  S  S  E  E  Q     
-----------------------------------------|----------------------------------|
-----------------------------------------|----------------------------------|
-----------------------------------------|----------------------------------|
-----------------------------------------|----------------------------------|
-----------------------------------5-----|-----------------------------4----|
--0--2--2--2--2--0--0--2--0--2--0--3-----|--0--2--2--2--2--0--0--2--0--2----|


     PM PM PM PM PM PM PM PM            PM PM PM PM PM PM PM PM       
  E  S  S  S  S  S  S  E  E  Q       E  S  S  S  S  S  S  E  E  Q     
----------------------------------|----------------------------------|
----------------------------------|----------------------------------|
----------------------------------|----------------------------------|
----------------------------------|----------------------------------|
-----------------------------5----|-----------------------------4----|
--0--2--2--2--2--0--0--2--0--3----|--0--2--2--2--2--0--0--2--0--2----|


     PM PM PM PM PM PM PM PM            PM PM PM PM PM PM PM PM       
  E  S  S  S  S  S  S  E  E  Q       E  S  S  S  S  S  S  E  E  Q     
----------------------------------|----------------------------------|
----------------------------------|----------------------------------|
----------------------------------|----------------------------------|
----------------------------------|----------------------------------|
-----------------------------5----|-----------------------------4----|
--0--2--2--2--2--0--0--2--0--3----|--0--2--2--2--2--0--0--2--0--2----|


     PM PM PM PM PM PM PM PM            PM PM PM PM PM PM PM PM       
  E  S  S  S  S  S  S  E  E  Q       E  S  S  S  S  S  S  E  E  Q     
----------------------------------|----------------------------------|
----------------------------------|----------------------------------|
----------------------------------|----------------------------------|
----------------------------------|----------------------------------|
-----------------------------5----|-----------------------------4----|
--0--2--2--2--2--0--0--2--0--3----|--0--2--2--2--2--0--0--2--0--2----|


     PM PM PM PM PM PM PM PM                                                 
  E  S  S  S  S  S  S  E  E  Q       W                   H        H          
----------------------------------|-------------------|---------------------|
----------------------------------|-------------------|---------------------|
----------------------------------|-------------------|---------------------|
----------------------------------|-------------------|---------------------|
-----------------------------5----|--7----------------|--5--------5\--------|
--0--2--2--2--2--0--0--2--0--3----|--5----------------|--3--------3\--------|


     PM PM PM PM PM PM PM PM PM PM       
  E  S  S  S  S  S  S  S  S  S  S  Q     
----------------------------------------|
----------------------------------------|
----------------------------------------|
----------------------------------------|
-----------------------------------4----|
--0--2--2--2--2--0--0--2--0--2--0--2----|


     PM PM PM PM PM PM PM PM PM PM                           
  E  S  S  S  S  S  S  S  S  S  S  Q       W                 
----------------------------------------|-------------------|
----------------------------------------|-------------------|
----------------------------------------|-------------------|
----------------------------------------|-------------------|
-----------------------------------5----|--7----------------|
--0--2--2--2--2--0--0--2--0--2--0--3----|--5----------------|


                                 PM PM PM                        
  H        H            H        E  E  Q       W                 
---------------------|----------------------|-------------------|
---------------------|----------------------|-------------------|
---------------------|----------------------|-------------------|
---------------------|----------------------|-------------------|
--5--------5\--------|--4-------------------|--7----------------|
--3--------3\--------|--2--------2--0--2----|--5----------------|


                                                    PM PM PM    
  W                   H        H           H        E  E  Q     
--0----------------|--------------------|----------------------|
--0----------------|--------------------|----------------------|
--x----------------|--------------------|----------------------|
--2----------------|--5-----------------|----------------------|
--2----------------|--3--------5--------|--4-------------------|
--0----------------|-----------3--------|--2--------2--0--2----|


  W                   W                   H        H         
-------------------|--0----------------|--------------------|
-------------------|--0----------------|--------------------|
-------------------|--x----------------|--------------------|
-------------------|--2----------------|--5-----------------|
--7----------------|--2----------------|--3--------5--------|
--5----------------|--0----------------|-----------3--------|


           PM PM PM                                            
  H        E  E  Q       W                   W                 
----------------------|-------------------|--0----------------|
----------------------|-------------------|--0----------------|
----------------------|-------------------|--x----------------|
----------------------|-------------------|--2----------------|
--4-------------------|--7----------------|--2----------------|
--2--------2--0--2----|--5----------------|--0----------------|


                                PM PM PM                        
  H        H           H        E  E  Q       W                 
--------------------|----------------------|-------------------|
--------------------|----------------------|-------------------|
--------------------|----------------------|-------------------|
--5-----------------|----------------------|-------------------|
--3--------5--------|--4-------------------|--7----------------|
-----------3--------|--2--------2--0--2----|--5----------------|


                                           PM PM PM PM PM    PM PM PM  
  W                   H        H           E  S  S  E  E  E  E  E  E   
--0----------------|--------------------|-----------------------------|
--0----------------|--------------------|-----------------------------|
--x----------------|--------------------|-----------------------------|
--2----------------|--5-----------------|-----------------------------|
--2----------------|--3--------5--------|-----------------4-----------|
--0----------------|-----------3--------|--2--2--2--2--2--2--2--2--2--|


  PM PM PM PM PM    PM PM PM    PM PM PM PM PM    PM PM PM  
  E  S  S  E  E  E  E  E  E     E  S  S  E  E  E  E  E  E   
-----------------------------|-----------------------------|
-----------------------------|-----------------------------|
-----------------------------|-----------------------------|
-----------------------------|-----------------------------|
-----------------7-----------|-----------------2-----------|
--5--5--5--5--5--5--5--5--5--|--0--0--0--0--0--0--0--0--0--|


       PM PM             PM PM PM PM PM    PM PM PM  
  Q    E  E  H           E  S  S  E  E  E  E  E  E   
----------------------|-----------------------------|
----------------------|-----------------------------|
----------------------|-----------------------------|
--5-------------------|-----------------------------|
--3----3--3--5--------|-----------------4-----------|
-------------3--------|--2--2--2--2--2--2--2--2--2--|


  PM PM PM PM PM    PM PM PM    PM PM PM PM PM    PM PM PM  
  E  S  S  E  E  E  E  E  E     E  S  S  E  E  E  E  E  E   
-----------------------------|-----------------------------|
-----------------------------|-----------------------------|
-----------------------------|-----------------------------|
-----------------------------|-----------------------------|
-----------------7-----------|-----------------2-----------|
--5--5--5--5--5--5--5--5--5--|--0--0--0--0--0--0--0--0--0--|


       PM PM             PM PM PM PM PM    PM PM PM  
  Q    E  E  H           E  S  S  E  E  E  E  E  E   
----------------------|-----------------------------|
----------------------|-----------------------------|
----------------------|-----------------------------|
--5-------------------|-----------------------------|
--3----3--3--5--------|-----------------4-----------|
-------------3--------|--2--2--2--2--2--2--2--2--2--|


  PM PM PM PM PM    PM PM PM    PM PM PM PM PM    PM PM PM  
  E  S  S  E  E  E  E  E  E     E  S  S  E  E  E  E  E  E   
-----------------------------|-----------------------------|
-----------------------------|-----------------------------|
-----------------------------|-----------------------------|
-----------------------------|-----------------------------|
-----------------7-----------|-----------------2-----------|
--5--5--5--5--5--5--5--5--5--|--0--0--0--0--0--0--0--0--0--|


       PM PM             PM PM PM PM PM    PM PM PM  
  Q    E  E  H           E  S  S  E  E  E  E  E  E   
----------------------|-----------------------------|
----------------------|-----------------------------|
----------------------|-----------------------------|
--5-------------------|-----------------------------|
--3----3--3--5--------|-----------------4-----------|
-------------3--------|--2--2--2--2--2--2--2--2--2--|


  PM PM PM PM PM    PM PM PM    PM PM PM PM PM    PM PM PM  
  E  S  S  E  E  E  E  E  E     E  S  S  E  E  E  E  E  E   
-----------------------------|-----------------------------|
-----------------------------|-----------------------------|
-----------------------------|-----------------------------|
-----------------------------|-----------------------------|
-----------------7-----------|-----------------2-----------|
--5--5--5--5--5--5--5--5--5--|--0--0--0--0--0--0--0--0--0--|


       PM PM                  PM PM PM PM PM PM PM PM         
  Q    E  E  Q    Q        E  S  S  S  S  S  S  E  E  E  E    
------------------------|-----------------------------------||
------------------------|-----------------------------------||
------------------------|-----------------------------------||
--5---------------------|-----------------------------------||
--3----3--3--5----5\----|-----------------------------4-----||
-------------3----3\----|--0--2--2--2--2--0--0--2--0--2-----||



Duration Legend
---------------
W - whole
H - half
Q - quarter
E - 8th
S - 16th
T - 32nd
X - 64th
. - note dotted
|-n-|  - n-tuplets


Tablature Legend
----------------
L - tied note
x - dead note
g - grace note
(n) - ghost note
> - accentuded note
NH - natural harmonic
AH - artificial harmonic
TH - tapped harmonic
SH - semi harmonic
PH - pitch harmonic
h - hammer on
p - pull off
b - bend
br - bendRelease
pb - preBend
pbr - preBendRelease
brb - bendReleaseBend
\n/ - tremolo bar dip
\n - tremolo bar dive
-/n - tremolo bar Release up
/n\ - tremolo bar inverted dip
/n - tremolo bar return
-\n - tremolo bar Release down
S - shift slide
s - legato slide
/ -  slide into from below or out of upwards
\ -  slide into from above or out of downwards
~ - vibrato
W - wide vibrato
tr - trill
TP - tremolo picking
T - tapping
S - slap
P - pop
< - fade in
^ - brush up
v - brush down

            
            
Suggest correction
Creating personal tab
Creating personal tab
You can edit any tab online and save it as your Personal.

You can edit, replace or remove any tab part or add personal notes – all changes will be seen only by you.

Personal tabs can be accessed anytime from any device, even offline.
Learn more »
Give kudos to tab author, rate the tab!
1 2 3 4 5
comments
print report bad tab
guest
You may want to rate the tab now too:
select rating
Wanna post a correction for this tab? Suggest correction