Oops, an error
Loading. Please wait.

Hold At All Costs tab

version 2
version 2

Whole song

Interactive

210 views 1 this week
no commentswrite comment
1 2 3 4 5
3 more votes to show rating
add to favorites
×
Save as Personal and add changes to this tab that will be seen only by you. Learn more ›
×
You can save this tab as Personal to edit and correct it or add notes. All changes will be seen only by you. Learn more »
launch autoscroll
font size
0
reset
how to read this tab
guitar tuner
edit
Autoscroll
slow
fast
+/-
esc
set tempo
stop
#----------------------------------PLEASE NOTE---------------------------------#
#This file is the author's own work and represents their interpretation of the #
#song. You may only use this file for private study, scholarship, or research. #
#------------------------------------------------------------------------------#

HOLD AT ALL COSTS
As recorded by Iced Earth
(From the 2004 Album THE GLORIOUS BURDEN (GETTYSBURG 1863))


Transcribed by livingzombie & abysslord (www.abysslord.com)

 Words and Music by Jon Schaffer

 

Gtr I (Eb Ab Db Gb Bb Eb) - 'Clean'
Gtr II (Eb Ab Db Gb Bb Eb) - 'Distortion I'
Gtr III (Eb Ab Db Gb Bb Eb) - 'Distortion II'
Gtr IV (Eb Ab Db Gb Bb Eb) - 'Strings'


 Intro
  Q=101
  N.C.            Am
 4/4
  Gtr I
  Wx12            Q  E Q  E Q    +E  E E Q  E E E
|-------------||-------0-------|---------0--------|
|-------------||o---------0----|------------0-----|
|-------------||------------2--|-(2)-2--------2---|
|-------------||-----2---------|-------2--------2-|
|-------------||o-0------------|------------------|
|-------------||---------------|------------------|


  F               C       G
  Q  E Q  E E E   E E E E E E E E    5x
|------1--------|--------------------||
|---------1-----|-------------------o||
|----2------2---|-----0---------0----||
|-3-------------|---2---------0------||
|-------------0-|-3-----3---2-------o||
|---------------|---------3----------||


   Verse
    A5                                                            C5 G5
    Gtr II
      PM--------------------------------------------------------|
    E S S S S S S T T S S S S S S S   T T S S S S S S S T T S S S  E E
||----------------------------------|-----------------------------------|
||o---------------------------------|-----------------------------------|
||----------------------------------|-----------------------------------|
||----------------------------------|-----------------------------------|
||o-7-------------------------------|-----------------------------10-5--|
||--5-5-5-5-5-5-5-5-5-5-5-5-5-5-5-5-|-5-5-5-5-5-5-5-5-5-5-5-5-5-5--8-3--|


  A5                                                            C5 G5
    PM--------------------------------------------------------|
  E S S S S S S T T S S S S S S S   T T S S S S S S S T T S S S  E E
|---------------------------------|----------------------------------|
|---------------------------------|----------------------------------|
|---------------------------------|----------------------------------|
|---------------------------------|----------------------------------|
|-7-------------------------------|-----------------------------10-5-|
|-5-5-5-5-5-5-5-5-5-5-5-5-5-5-5-5-|-5-5-5-5-5-5-5-5-5-5-5-5-5-5--8-3-|


  F5                                                            C5 G5
    PM--------------------------------------------------------|
  E S S S S S S T T S S S S S S S   T T S S S S S S S T T S S S  E E
|---------------------------------|----------------------------------|
|---------------------------------|----------------------------------|
|---------------------------------|----------------------------------|
|---------------------------------|----------------------------------|
|-3-------------------------------|-----------------------------10-5-|
|-1-1-1-1-1-1-1-1-1-1-1-1-1-1-1-1-|-1-1-1-1-1-1-1-1-1-1-1-1-1-1--8-3-|


  A5                                                            C5 G5
    PM--------------------------------------------------------|
  E S S S S S S T T S S S S S S S   T T S S S S S S S T T S S S  E E  3x
|---------------------------------|-----------------------------------||
|---------------------------------|----------------------------------o||
|---------------------------------|-----------------------------------||
|---------------------------------|-----------------------------------||
|-7-------------------------------|-----------------------------10-5-o||
|-5-5-5-5-5-5-5-5-5-5-5-5-5-5-5-5-|-5-5-5-5-5-5-5-5-5-5-5-5-5-5--8-3--||


 Chorus
  G5 A5                                   G5
  Gtr II
                                    PM----|
  S  S e H.            +H       +E  S S E E
|-------------------|-----------------------|
|-------------------|-----------------------|
|-------------------|-----------------------|
|-------------------|-----------------------|
|-5--7-7-7----------|--(7)------(7)-----7-5-|
|-3--5-5-5----------|--(5)------(5)-3-3-5-3-|
|
| Gtr III
| Q.        E Q  Q      Q   E E +H
|-------------------|-----------------------|
|-------------------|-----------------------|
|-------------4--5--|--/9---7-5-(5)---------|
|-----------5-5--7--|-/10---9-7-(7)---------|
|-----------7-------|-----------------------|
|-------------------|-----------------------|


  F5               C5      G5
   W                 Q.    E +H
|----------------|-------------------|
|----------------|-------------------|
|----------------|-------------------|
|----------------|-------------------|
|--3-------------|--10-----5-(5)-----|
|--1-------------|---8-----3-(3)-----|
|
| +Q   E E Q  Q      Q   E E +Q   Q
|----------------|-------------------|
|----------------|-------------------|
|-(5)--5---4--5--|--/9---7-5-(5)--4--|
|-(7)--7-5-5--7--|-/10---9-7-(7)--5--|
|--------7-------|-------------------|
|----------------|-------------------|


     A5                                       G5
                                       PM-----|
   S S e  H.            +H         +E  S S  E E
|---------------------|-------------------------|
|---------------------|-------------------------|
|---------------------|-------------------------|
|---------------------|-------------------------|
|--5-7-7--7-----------|-(7)--------(7)------7-5-|
|--3-5-5--5-----------|-(5)--------(5)-3-3--5-3-|
|
|  Q      E  E +H       +E   E E E  Q       Q
|---------------------|-------------------------|
|-12-----10--8-(8)----|-(8)-10-8-6--8-----------|
|-12-----10--9-(9)----|-(9)-10-9-7--9-------9---|
|---------------------|--------------------10---|
|---------------------|-------------------------|
|---------------------|-------------------------|


  F5               C5      G5
  W                 Q.     E +H
|----------------|--------------------|
|----------------|--------------------|
|----------------|--------------------|
|----------------|--------------------|
|-3--------------|-10------5-(5)------|
|-1--------------|--8------3-(3)------|
|
| Q   E E +H        Q    Q    Q    Q
|----------------|--------------------|
|----------------|-12---10---13---12--|
|-7---9-5-(5)----|-12---10---14---12--|
|-9--10-7-(7)----|--------------------|
|----------------|--------------------|
|----------------|--------------------|


 Verse
  A5                                                                C5 G5
     PM-----------------------------------------------------------|
   E S S S S S S T T S S S S S S S     T  T S S S S S S S T T S S S  E E
|----------------------------------|-------------------------------------|
|----------------------------------|-------------------------------------|
|----------------------------------|-------------------------------------|
|----------------------------------|-------------------------------------|
|--7-------------------------------|--------------------------------10-5-|
|--5-5-5-5-5-5-5-5-5-5-5-5-5-5-5-5-|---5--5-5-5-5-5-5-5-5-5-5-5-5-5--8-3-|
|
|                                      >
|  ~~~~~~~~~~~~~~~~~~~~~~~~~~~~~~~~~~~~~~~
|  W                                  +W
|----------------------------------|-------------------------------------|
|-13-------------------------------|-(13)--------------------------------|
|-14-------------------------------|-(14)--------------------------------|
|----------------------------------|-------------------------------------|
|----------------------------------|-------------------------------------|
|----------------------------------|-------------------------------------|


    A5                                                            C5 G5
    Gtr II
      PM--------------------------------------------------------|
    E S S S S S S T T S S S S S S S   T T S S S S S S S T T S S S  E E
||----------------------------------|-----------------------------------|
||o---------------------------------|-----------------------------------|
||----------------------------------|-----------------------------------|
||----------------------------------|-----------------------------------|
||o-7-------------------------------|-----------------------------10-5--|
||--5-5-5-5-5-5-5-5-5-5-5-5-5-5-5-5-|-5-5-5-5-5-5-5-5-5-5-5-5-5-5--8-3--|


  F5                                                            C5 G5
    PM--------------------------------------------------------|
  E S S S S S S T T S S S S S S S   T T S S S S S S S T T S S S  E E
|---------------------------------|----------------------------------|
|---------------------------------|----------------------------------|
|---------------------------------|----------------------------------|
|---------------------------------|----------------------------------|
|-3-------------------------------|-----------------------------10-5-|
|-1-1-1-1-1-1-1-1-1-1-1-1-1-1-1-1-|-1-1-1-1-1-1-1-1-1-1-1-1-1-1--8-3-|


  A5                                                            C5 G5
    PM--------------------------------------------------------|
  E S S S S S S T T S S S S S S S   T T S S S S S S S T T S S S  E E
|---------------------------------|----------------------------------|
|---------------------------------|----------------------------------|
|---------------------------------|----------------------------------|
|---------------------------------|----------------------------------|
|-7-------------------------------|-----------------------------10-5-|
|-5-5-5-5-5-5-5-5-5-5-5-5-5-5-5-5-|-5-5-5-5-5-5-5-5-5-5-5-5-5-5--8-3-|


  1.
  A5                                                            C5 G5
    PM--------------------------------------------------------|
  E S S S S S S T T S S S S S S S   T T S S S S S S S T T S S S  E E
|---------------------------------|-----------------------------------||
|---------------------------------|----------------------------------o||
|---------------------------------|-----------------------------------||
|---------------------------------|-----------------------------------||
|-7-------------------------------|-----------------------------10-5-o||
|-5-5-5-5-5-5-5-5-5-5-5-5-5-5-5-5-|-5-5-5-5-5-5-5-5-5-5-5-5-5-5--8-3--||


 Chorus
  2.
  G5 A5                                   G5
  Gtr II
                                    PM----|
  S  S e H.            +H       +E  S S E E
|-------------------|-----------------------|
|-------------------|-----------------------|
|-------------------|-----------------------|
|-------------------|-----------------------|
|-5--7-7-7----------|--(7)------(7)-----7-5-|
|-3--5-5-5----------|--(5)------(5)-3-3-5-3-|
|
| Gtr III
| Q.        E Q  Q      Q   E E +H
|-------------------|-----------------------|
|-------------------|-----------------------|
|-------------4--5--|--/9---7-5-(5)---------|
|-----------5-5--7--|-/10---9-7-(7)---------|
|-----------7-------|-----------------------|
|-------------------|-----------------------|


  F5               C5      G5
   W                 Q.    E +H
|----------------|-------------------|
|----------------|-------------------|
|----------------|-------------------|
|----------------|-------------------|
|--3-------------|--10-----5-(5)-----|
|--1-------------|---8-----3-(3)-----|
|
| +Q   E E Q  Q      Q   E E +Q   Q
|----------------|-------------------|
|----------------|-------------------|
|-(5)--5---4--5--|--/9---7-5-(5)--4--|
|-(7)--7-5-5--7--|-/10---9-7-(7)--5--|
|--------7-------|-------------------|
|----------------|-------------------|


     A5                                       G5
                                       PM-----|
   S S e  H.            +H         +E  S S  E E
|---------------------|-------------------------|
|---------------------|-------------------------|
|---------------------|-------------------------|
|---------------------|-------------------------|
|--5-7-7--7-----------|-(7)--------(7)------7-5-|
|--3-5-5--5-----------|-(5)--------(5)-3-3--5-3-|
|
|  Q      E  E +H       +E   E E E  Q       Q
|---------------------|-------------------------|
|-12-----10--8-(8)----|-(8)-10-8-6--8-----------|
|-12-----10--9-(9)----|-(9)-10-9-7--9-------9---|
|---------------------|--------------------10---|
|---------------------|-------------------------|
|---------------------|-------------------------|


  F5               C5      G5
  W                 Q.     E +H
|----------------|--------------------|
|----------------|--------------------|
|----------------|--------------------|
|----------------|--------------------|
|-3--------------|-10------5-(5)------|
|-1--------------|--8------3-(3)------|
|
| Q   E E +H        Q    Q    Q    Q
|----------------|--------------------|
|----------------|-12---10---13---12--|
|-7---9-5-(5)----|-12---10---14---12--|
|-9--10-7-(7)----|--------------------|
|----------------|--------------------|
|----------------|--------------------|


      A5                                       G5
                                       PM------|
   S  S e H.            +H         +E  S S  E  E
|--------------------|---------------------------|
|--------------------|---------------------------|
|--------------------|---------------------------|
|--------------------|---------------------------|
|--5--7-7-7----------|--(7)--------(7)------7--5-|
|--3--5-5-5----------|--(5)--------(5)-3-3--5--3-|
|
|  Q.        E Q  Q      Q   E  E   Q       Q
|--------------------|-------7-(7)--8------10----|
|-13-----------------|-------8-(8)--8------10----|
|-14-----------4--5--|--/9---7--5--(5)-----(5)---|
|------------5-5--7--|-/10---9--7--(7)-----(7)---|
|------------7-------|---------------------------|
|--------------------|---------------------------|


  F5                     C5         G5
  W                        Q.         E  +H
|----------------------|----------------------------|
|----------------------|----------------------------|
|----------------------|----------------------------|
|----------------------|----------------------------|
|-3--------------------|--10----------5--(5)--------|
|-1--------------------|---8----------3--(3)--------|
|
| Q   E   E   Q    Q       Q     E    E   Q     Q
|-8--(8)-(8)-(8)--(8)--|--12---(12)-(12)-10---(10)--|
|-6--(6)-(6)-(6)--(6)--|--13---(13)-(13)-12---(12)--|
|-5---5-------4----5---|--/9-----7----5--(5)----4---|
|-7---7---5---5----7---|-/10-----9----7--(7)----5---|
|---------7------------|----------------------------|
|----------------------|----------------------------|


     A5                                                    G5
                                                    PM-----|
   S S e   H.                  +H               +E  S S  E E
|----------------------------|-------------------------------|
|----------------------------|-------------------------------|
|----------------------------|-------------------------------|
|----------------------------|-------------------------------|
|--5-7-7---7-----------------|-(7)--------------(7)------7-5-|
|--3-5-5---5-----------------|-(5)--------------(5)-3-3--5-3-|
|
|  Q       E    E   +Q    Q     E    E   E   E   Q       Q
|--8------(8)--(8)--(8)---8--|-13--(13)-12-(12)-10------12---|
|-10-----(10)-(10)-(10)--10--|-15--(15)-13-(13)-12------13---|
|-16------14---12--(12)--12--|-12---14--12--10--12-------9---|
|-17------15---14--(14)--14--|-14---15--14--12--14------10---|
|----------------------------|-------------------------------|
|----------------------------|-------------------------------|


  F5                      C5      G5
   W                       Q.     E +H
|-----------------------|--------------------|
|-----------------------|--------------------|
|-----------------------|--------------------|
|-----------------------|--------------------|
|--3--------------------|-10------5-(5)------|
|--1--------------------|--8------3-(3)------|
|
|  Q    E    E   +H        Q    Q    Q    Q
|--8---(8)--(8)--(8)----|-10----8---12---10--|
|-10--(10)-(10)-(10)----|-12---10---13---12--|
|--7----9----5---(5)----|-12---10---14---12--|
|--9---10----7---(7)----|--------------------|
|-----------------------|--------------------|
|-----------------------|--------------------|


 Bridge
  A5
  Gtr II
         PM----------------------------------------
   E     S  S  S  S  S  S  S  S  S  S  S  S  S  S
|-------------------------------------------------|
|-------------------------------------------------|
|-------------------------------------------------|
|-------------------------------------------------|
|--7----------------------------------------------|
|--5-----5--5--5--5--5--5--5--5--5--5--5--5--5--5-|
|
| Gtr III
|  ~~~~~~~~~~~~~~~~~~~~~~~~~~~~~~~~~~~~~~~~~~~~~~~~
|  W
|-12----------------------------------------------|
|-13----------------------------------------------|
|-14----------------------------------------------|
|-------------------------------------------------|
|-------------------------------------------------|
|-------------------------------------------------|
|
| Gtr IV
|  S  S  S  S  S  S  S  S  S  S  S  S  S  S  S  S
|-------------------------------------------------|
|-17-15-13-15-17-15-13-15-17-15-13-15-17-15-13-15-|
|-------------------------------------------------|
|-------------------------------------------------|
|-------------------------------------------------|
|-------------------------------------------------|


 ------------------------------------------------|
    S   S  S  S  S  S  S  S  S  S  S  S  S  S  S  S
|---------------------------------------------------|
|---------------------------------------------------|
|---------------------------------------------------|
|---------------------------------------------------|
|---------------------------------------------------|
|---5---5--5--5--5--5--5--5--5--5--5--5--5--5--5--5-|
|
|   >
|~~~~~~
|  +W
|-(12)----------------------------------------------|
|-(13)----------------------------------------------|
|-(14)----------------------------------------------|
|---------------------------------------------------|
|---------------------------------------------------|
|---------------------------------------------------|
|
|   S   S  S  S  S  S  S  S  S  S  S  S  S  S  S  S
|---------------------------------------------------|
|--17--15-13-15-17-15-13-15-17-15-13-15-17-15-13-15-|
|---------------------------------------------------|
|---------------------------------------------------|
|---------------------------------------------------|
|---------------------------------------------------|


  F5
  Gtr II
         PM------------------------------------|
   E     S  S  S  S  S  S  S  S  S  S  S  S  S  S
|-------------------------------------------------|
|-------------------------------------------------|
|-------------------------------------------------|
|-------------------------------------------------|
|--3----------------------------------------------|
|--1-----1--1--1--1--1--1--1--1--1--1--1--1--1--1-|
|
| Gtr IV
|  S  S  S  S  S  S  S  S  S  S  S  S  S  S  S  S
|-------------------------------------------------|
|-18-17-15-13-18-17-15-13-18-17-15-13-18-17-15-13-|
|-------------------------------------------------|
|-------------------------------------------------|
|-------------------------------------------------|
|-------------------------------------------------|


  C5                      G5
         PM------------|         PM-----------|
   E     S  S  S  S  S  S  E     S  S  S S  S S
|-----------------------------------------------|
|-----------------------------------------------|
|-----------------------------------------------|
|-----------------------------------------------|
|-10-----------------------5--------------------|
|--8-----8--8--8--8--8--8--3-----3--3--3-3--3-3-|
|
|  S  S  S  S  S  S  S  S  S  S  S  S  e    e
|-17-15-13-15-17-15-13-15-19-17-15-17-19---17---|
|-----------------------------------------------|
|-----------------------------------------------|
|-----------------------------------------------|
|-----------------------------------------------|
|-----------------------------------------------|


    A5
           PM----------------------------------------
     E     S  S  S  S  S  S  S  S  S  S  S  S  S  S
||--------------------------------------------------|
||o-------------------------------------------------|
||--------------------------------------------------|
||--------------------------------------------------|
||o--7----------------------------------------------|
||---5-----5--5--5--5--5--5--5--5--5--5--5--5--5--5-|
|
|    S  S  S  S  S  S  S  S  S  S  S  S  S  S  S  S
||--------------------------------------------------|
||o-17-15-13-15-17-15-13-15-17-15-13-15-17-15-13-15-|
||--17-16-14-16-17-16-14-16-17-16-14-16-17-16-14-16-|
||--------------------------------------------------|
||o-------------------------------------------------|
||--------------------------------------------------|


 ----------------------------------------------|
   S  S  S  S  S  S  S  S  S  S  S  S  S  S  S  S
|--------------------------------------------------|
|--------------------------------------------------|
|--------------------------------------------------|
|--------------------------------------------------|
|--------------------------------------------------|
|--5--5--5--5--5--5--5--5--5--5--5--5--5--5--5--5--|
|
|  S  S  S  S  S  S  S  S  S  S  S  S  S  S  S  S
|--------------------------------------------------|
|-17-15-13-15-17-15-13-15-17-15-13-15-17-15-13-15--|
|-17-16-14-16-17-16-14-16-17-16-14-16-17-16-14-16--|
|--------------------------------------------------|
|--------------------------------------------------|
|--------------------------------------------------|


  F5
         PM------------------------------------|
   E     S  S  S  S  S  S  S  S  S  S  S  S  S  S
|-------------------------------------------------|
|-------------------------------------------------|
|-------------------------------------------------|
|-------------------------------------------------|
|--3----------------------------------------------|
|--1-----1--1--1--1--1--1--1--1--1--1--1--1--1--1-|
|
|  S  S  S  S  S  S  S  S  S  S  S  S  S  S  S  S
|-------------------------------------------------|
|-18-17-15-13-18-17-15-13-18-17-15-13-18-17-15-13-|
|-19-17-16-14-19-17-16-14-19-17-16-14-19-17-16-14-|
|-------------------------------------------------|
|-------------------------------------------------|
|-------------------------------------------------|


  C5                      G5
         PM------------|         PM-----------|
   E     S  S  S  S  S  S  E     S  S  S S  S S  3x
|------------------------------------------------||
|-----------------------------------------------o||
|------------------------------------------------||
|------------------------------------------------||
|-10-----------------------5--------------------o||
|--8-----8--8--8--8--8--8--3-----3--3--3-3--3-3--||
|
|  S  S  S  S  S  S  S  S  S  S  S  S  e    e    3x
|-17-15-13-15-17-15-13-15-19-17-15-17-19---17----||
|-18-17-15-17-18-17-15-17-20-18-17-18-20---18---o||
|------------------------------------------------||
|------------------------------------------------||
|-----------------------------------------------o||
|------------------------------------------------||


  A5
  Gtr II
      PM|                PM|                             PM|
  E   S S  E  +E      E  S S  E E     Q       E  E  +E   S S  E  E
|---------------------------------|--------------------------------|
|---------------------------------|--------------------------------|
|-------------------------------5-|---4--------------------------7-|
|-------5--7--(7)\---------5--7---|-----------7--7--(7)----5--7----|
|-----7------------------7--------|----------------------7---------|
|---------------------------------|--------------------------------|
|
| Gtr III
|     PM|                PM|                             PM|
| E   S S  E  +E      E  S S  E E     Q       E  E  +E   S S  E  E
|---------------------------------|--------------------------------|
|---------------------------------|--------------------------------|
|-------------------------------9-|-----------------------------12-|
|-------9-10-(10)\---------9-10---|--12------10-10-(10)----9-10----|
|----10-----------------10--------|---------------------10---------|
|---------------------------------|--------------------------------|
|
| Gtr IV
| Q.           S   S  H              +E  S S  E  E   E   E    E  E
|---------------------------------|-------------12--10-------------|
|------------------8-10-----------|-(10)---8-10---------13---12-13-|
|--------------9------------------|------9-------------------------|
|---------------------------------|--------------------------------|
|---------------------------------|--------------------------------|
|---------------------------------|--------------------------------|


  F5                     C5      G5
   Q    E Q   E Q         Q   Q   Q   Q
|----------------------|------------------|
|----------------------|--8---6---5-------|
|--5----4-4-----4------|--------------5---|
|-------------7--------|------------------|
|----------------------|------------------|
|----------------------|------------------|
|
|  Q    E Q   E Q         Q   Q   Q   Q
|----------------------|------------------|
|----------------------|------------------|
|-10----9-9-----9------|--9---------------|
|------------12--------|-----12--10-------|
|----------------------|-------------12---|
|----------------------|------------------|
|
|  H..             +E     H       Q   Q
|----------------------|------------------|
|-10--------------(10)S|=13------12-------|
|----------------------|-------------12---|
|----------------------|------------------|
|----------------------|------------------|
|----------------------|------------------|


  A5
       PM|                PM|                             PM|
   E   S S  E  +E      E  S S  E E     Q       E  E  +E   S S  E  E
|----------------------------------|--------------------------------|
|----------------------------------|--------------------------------|
|--------------------------------5-|---4--------------------------7-|
|--------5--7--(7)\---------5--7---|-----------7--7--(7)----5--7----|
|------7------------------7--------|----------------------7---------|
|----------------------------------|--------------------------------|
|
|      PM|                PM|                             PM|
|  E   S S  E  +E      E  S S  E E     Q       E  E  +E   S S  E  E
|----------------------------------|--------------------------------|
|----------------------------------|--------------------------------|
|--------------------------------9-|-----------------------------12-|
|--------9-10-(10)\---------9-10---|--12------10-10-(10)----9-10----|
|-----10-----------------10--------|---------------------10---------|
|----------------------------------|--------------------------------|
|
|  Q.           S   S  H              +E  S S  E  E   E   E    E  E
|----------------------------------|-------------12--10-------------|
|-------------------8-10-----------|-(10)---8-10---------13---12-13-|
|---------------9------------------|------9-------------------------|
|-14-------------------------------|--------------------------------|
|----------------------------------|--------------------------------|
|----------------------------------|--------------------------------|


  F5                      C5          G5
   Q  E Q       E  Q       Q     Q     Q   Q
|-----------------------|----------------------|
|-----------------------|--8-----6-----5-------|
|--5--4-4----------4----|------------------5---|
|---------------7-------|----------------------|
|-----------------------|----------------------|
|-----------------------|----------------------|
|
|  Q  E Q       E  Q       Q     Q     Q   Q
|-----------------------|----------------------|
|-----------------------|----------------------|
|-10--9-9----------9----|--9-------------------|
|--------------12-------|-------12----10-------|
|-----------------------|-----------------12---|
|-----------------------|----------------------|
|
|                          |---3----|
|  H       +E   E  E  E    Q  Q     Q  Q   Q
|---------------------8-|-12-13----12-10-------|
|-10------(10)--8-12-10-|-13-15----13-12--13---|
|---------------9-12----|-----------------14---|
|-----------------------|----------------------|
|-----------------------|----------------------|
|-----------------------|----------------------|


  A5
       PM|                PM|                             PM|
   E   S S  E  +E      E  S S  E E     Q       E  E  +E   S S  E  E
|----------------------------------|--------------------------------|
|----------------------------------|--------------------------------|
|--------------------------------5-|---4--------------------------7-|
|--------5--7--(7)\---------5--7---|-----------7--7--(7)----5--7----|
|------7------------------7--------|----------------------7---------|
|----------------------------------|--------------------------------|
|
|      PM|                PM|                             PM|
|  E   S S  E  +E      E  S S  E E     Q       E  E  +E   S S  E  E
|----------------------------------|--------------------------------|
|----------------------------------|--------------------------------|
|--------------------------------9-|-----------------------------12-|
|--------9-10-(10)\---------9-10---|--12------10-10-(10)----9-10----|
|-----10-----------------10--------|---------------------10---------|
|----------------------------------|--------------------------------|
|
|  Q.           S   S  H              +E  S S  E  E   E   E    E  E
|----------------------------------|-----------8-17--15--13---12-13-|
|-------------------8-10-----------|-(10)---8-10-17--15--13---12-13-|
|-14------------9------------------|------9-------------------------|
|-14-------------------------------|--------------------------------|
|----------------------------------|--------------------------------|
|----------------------------------|--------------------------------|


  F5                  C5          G5
   Q  E Q     E  Q     Q     Q     Q     Q
|-------------------|--------------------------|
|-------------------|--8-----6-----5-----------|
|--5--4-4--------4--|--------------------5-----|
|-------------7-----|--------------------------|
|-------------------|--------------------------|
|-------------------|--------------------------|
|
|  Q  E Q     E  Q     Q     Q     Q     Q
|-------------------|--------------------------|
|-------------------|--------------------------|
|-10--9-9--------9--|--9-----------------------|
|------------12-----|-------12----10-----------|
|-------------------|-------------------12-----|
|-------------------|--------------------------|
|
|                      |---3----|  |---3----|
|  H       Q     Q     Q  Q     Q  Q  Q     Q
|-13------12----13--|-15-13----12-13-12----10--|
|-13------12----13--|-17-15----13-15-13----12--|
|-------------------|--------------------------|
|-------------------|--------------------------|
|-------------------|--------------------------|
|-------------------|--------------------------|


  A5
       PM|                PM|                             PM|
   E   S S  E  +E      E  S S  E E     Q       E  E  +E   S S  E  E
|----------------------------------|--------------------------------|
|----------------------------------|--------------------------------|
|--------------------------------5-|---4--------------------------7-|
|--------5--7--(7)\---------5--7---|-----------7--7--(7)----5--7----|
|------7------------------7--------|----------------------7---------|
|----------------------------------|--------------------------------|
|
|      PM|                PM|                             PM|
|  E   S S  E  +E      E  S S  E E     Q       E  E  +E   S S  E  E
|----------------------------------|--------------------------------|
|----------------------------------|--------------------------------|
|--------------------------------9-|-----------------------------12-|
|--------9-10-(10)\---------9-10---|--12------10-10-(10)----9-10----|
|-----10-----------------10--------|---------------------10---------|
|----------------------------------|--------------------------------|
|
|  Q.           S   S  H              +E  S S  E  E   E   E    E  E
|-12----------------7--8-----------|--(8)--------12--10-------------|
|-10-----------10---8-10-----------|-(10)---8-10--8--10--13---12-13-|
|---------------9------------------|------9-------------------------|
|----------------------------------|--------------------------------|
|----------------------------------|--------------------------------|
|----------------------------------|--------------------------------|


  F5                           C5          G5
   Q    E    Q     E    Q       Q     Q     Q     Q
|----------------------------|---------------------------|
|----------------------------|--8-----6-----5------------|
|--5----4----4----------4----|--------------------5------|
|------------------7---------|---------------------------|
|----------------------------|---------------------------|
|----------------------------|---------------------------|
|
|  Q    E    Q     E    Q       Q     Q     Q     Q
|----------------------------|---------------------------|
|----------------------------|---------------------------|
|-10----9----9----------9----|--9------------------------|
|-----------------12---------|-------12----10------------|
|----------------------------|-------------------12------|
|----------------------------|---------------------------|
|
|  |---3---|    |----3-----|    |---3----|  |---3----|
|  Q  Q    Q    Q     Q    Q    Q  Q     Q  Q  Q     Q
|----------------------------|---------------------------|
|-15-17---18---20----18---17-|-17-18----17-15-13----12---|
|--------------12------------|---------------------------|
|-12-14---15---------15---14-|-14-15----14-12------------|
|----------------------------|----------------15----14---|
|----------------------------|---------------------------|


 Verse
  A5                                                                C5 G5
  Gtr II
     PM-----------------------------------------------------------|
   E S S S S S S T T S S S S S S S     T  T S S S S S S S T T S S S  E E
|----------------------------------|-------------------------------------|
|----------------------------------|-------------------------------------|
|----------------------------------|-------------------------------------|
|----------------------------------|-------------------------------------|
|--7-------------------------------|--------------------------------10-5-|
|--5-5-5-5-5-5-5-5-5-5-5-5-5-5-5-5-|---5--5-5-5-5-5-5-5-5-5-5-5-5-5--8-3-|
|
| Gtr IV
|                                      >
|  W                                  +W
|----------------------------------|-------------------------------------|
|-10-------------------------------|-(10)--------------------------------|
|----------------------------------|-------------------------------------|
|----------------------------------|-------------------------------------|
|-12-------------------------------|-(12)--------------------------------|
|----------------------------------|-------------------------------------|


    A5                                                            C5 G5
    Gtr II
      PM--------------------------------------------------------|
    E S S S S S S T T S S S S S S S   T T S S S S S S S T T S S S  E E
||----------------------------------|-----------------------------------|
||o---------------------------------|-----------------------------------|
||----------------------------------|-----------------------------------|
||----------------------------------|-----------------------------------|
||o-7-------------------------------|-----------------------------10-5--|
||--5-5-5-5-5-5-5-5-5-5-5-5-5-5-5-5-|-5-5-5-5-5-5-5-5-5-5-5-5-5-5--8-3--|


  F5                                                            C5 G5
    PM--------------------------------------------------------|
  E S S S S S S T T S S S S S S S   T T S S S S S S S T T S S S  E E
|---------------------------------|----------------------------------|
|---------------------------------|----------------------------------|
|---------------------------------|----------------------------------|
|---------------------------------|----------------------------------|
|-3-------------------------------|-----------------------------10-5-|
|-1-1-1-1-1-1-1-1-1-1-1-1-1-1-1-1-|-1-1-1-1-1-1-1-1-1-1-1-1-1-1--8-3-|


  A5                                                            C5 G5
    PM--------------------------------------------------------|
  E S S S S S S T T S S S S S S S   T T S S S S S S S T T S S S  E E
|---------------------------------|----------------------------------|
|---------------------------------|----------------------------------|
|---------------------------------|----------------------------------|
|---------------------------------|----------------------------------|
|-7-------------------------------|-----------------------------10-5-|
|-5-5-5-5-5-5-5-5-5-5-5-5-5-5-5-5-|-5-5-5-5-5-5-5-5-5-5-5-5-5-5--8-3-|


  1.
  A5                                                            C5 G5
    PM--------------------------------------------------------|
  E S S S S S S T T S S S S S S S   T T S S S S S S S T T S S S  E E
|---------------------------------|-----------------------------------||
|---------------------------------|----------------------------------o||
|---------------------------------|-----------------------------------||
|---------------------------------|-----------------------------------||
|-7-------------------------------|-----------------------------10-5-o||
|-5-5-5-5-5-5-5-5-5-5-5-5-5-5-5-5-|-5-5-5-5-5-5-5-5-5-5-5-5-5-5--8-3--||


 Chorus
  2.
  G5 A5                                       G5
  Gtr II
                                      PM------|
  S  S e H.            +H         +E  S S  E  E
|-------------------|---------------------------|
|-------------------|---------------------------|
|-------------------|---------------------------|
|-------------------|---------------------------|
|-5--7-7-7----------|--(7)--------(7)------7--5-|
|-3--5-5-5----------|--(5)--------(5)-3-3--5--3-|
|
| Gtr III
| Q.        E Q  Q      Q   E  E   Q       Q
|-------------------|-------7-(7)--8------10----|
|-------------------|-------8-(8)--8------10----|
|-------------4--5--|--/9---7--5--(5)-----(5)---|
|-----------5-5--7--|-/10---9--7--(7)-----(7)---|
|-----------7-------|---------------------------|
|-------------------|---------------------------|


  F5                     C5         G5
  W                        Q.         E  +H
|----------------------|----------------------------|
|----------------------|----------------------------|
|----------------------|----------------------------|
|----------------------|----------------------------|
|-3--------------------|--10----------5--(5)--------|
|-1--------------------|---8----------3--(3)--------|
|
| Q   E   E   Q    Q       Q     E    E   Q     Q
|-8--(8)-(8)-(8)--(8)--|--12---(12)-(12)-10---(10)--|
|-6--(6)-(6)-(6)--(6)--|--13---(13)-(13)-12---(12)--|
|-5---5-------4----5---|--/9-----7----5--(5)----4---|
|-7---7---5---5----7---|-/10-----9----7--(7)----5---|
|---------7------------|----------------------------|
|----------------------|----------------------------|


     A5                                                    G5
                                                    PM-----|
   S S e   H.                  +H               +E  S S  E E
|----------------------------|-------------------------------|
|----------------------------|-------------------------------|
|----------------------------|-------------------------------|
|----------------------------|-------------------------------|
|--5-7-7---7-----------------|-(7)--------------(7)------7-5-|
|--3-5-5---5-----------------|-(5)--------------(5)-3-3--5-3-|
|
|  Q       E    E   +Q    Q     E    E   E   E   Q       Q
|--8------(8)--(8)--(8)---8--|-13--(13)-12-(12)-10------12---|
|-10-----(10)-(10)-(10)--10--|-15--(15)-13-(13)-12------13---|
|-16------14---12--(12)--12--|-12---14--12--10--12-------9---|
|-17------15---14--(14)--14--|-14---15--14--12--14------10---|
|----------------------------|-------------------------------|
|----------------------------|-------------------------------|


  F5                      C5      G5
   W                       Q.     E +H
|-----------------------|--------------------|
|-----------------------|--------------------|
|-----------------------|--------------------|
|-----------------------|--------------------|
|--3--------------------|-10------5-(5)------|
|--1--------------------|--8------3-(3)------|
|
|  Q    E    E   +H        Q    Q    Q    Q
|--8---(8)--(8)--(8)----|-10----8---12---10--|
|-10--(10)-(10)-(10)----|-12---10---13---12--|
|--7----9----5---(5)----|-12---10---14---12--|
|--9---10----7---(7)----|--------------------|
|-----------------------|--------------------|
|-----------------------|--------------------|


        A5                                       G5
                                         PM------|
     S  S e H.            +H         +E  S S  E  E
||---------------------|---------------------------|
||o--------------------|---------------------------|
||---------------------|---------------------------|
||---------------------|---------------------------|
||o--5--7-7-7----------|--(7)--------(7)------7--5-|
||---3--5-5-5----------|--(5)--------(5)-3-3--5--3-|
|
|    Q.        E Q  Q      Q   E  E   Q       Q
||--12-----------------|-------7-(7)--8------10----|
||o-13-----------3--5--|--13---8-(8)--8------10----|
||--14---------5-4--5--|--/9---7--5--(5)-----(5)---|
||-------------5-5--7--|-/10---9--7--(7)-----(7)---|
||o------------7-------|---------------------------|
||---------------------|---------------------------|


  F5                     C5         G5
  W                        Q.         E  +H
|----------------------|-----------------------------|
|----------------------|-----------------------------|
|----------------------|-----------------------------|
|----------------------|-----------------------------|
|-3--------------------|--10----------5--(5)---------|
|-1--------------------|---8----------3--(3)---------|
|
| Q   E   E   Q    Q       Q     E    E   Q     Q
|-8--(8)-(8)-(8)--(8)--|--12---(12)-(12)-10---(10)---|
|-6--(6)-(6)-(6)--(6)--|--13---(13)-(13)-12---(12)---|
|-5---5-------4----5---|--/9-----7----5--(5)----4----|
|-7---7---5---5----7---|-/10-----9----7--(7)----5----|
|---------7------------|-----------------------------|
|----------------------|-----------------------------|


     A5                                                    G5
                                                    PM-----|
   S S e   H.                  +H               +E  S S  E E
|----------------------------|-------------------------------|
|----------------------------|-------------------------------|
|----------------------------|-------------------------------|
|----------------------------|-------------------------------|
|--5-7-7---7-----------------|-(7)--------------(7)------7-5-|
|--3-5-5---5-----------------|-(5)--------------(5)-3-3--5-3-|
|
|  Q       E    E   +Q    Q     E    E   E   E   Q       Q
|--8------(8)--(8)--(8)---8--|-13--(13)-12-(12)-10------12---|
|-10-----(10)-(10)-(10)--10--|-15--(15)-13-(13)-12------13---|
|-16------14---12--(12)--12--|-12---14--12--10--12-------9---|
|-17------15---14--(14)--14--|-14---15--14--12--14------10---|
|----------------------------|-------------------------------|
|----------------------------|-------------------------------|


  F5                      C5      G5
   W                       Q.     E +H        3x
|-----------------------|---------------------||
|-----------------------|--------------------o||
|-----------------------|---------------------||
|-----------------------|---------------------||
|--3--------------------|-10------5-(5)------o||
|--1--------------------|--8------3-(3)-------||
|
|  Q    E    E   +H        Q    Q    Q    Q   3x
|--8---(8)--(8)--(8)----|-10----8---12---10---||
|-10--(10)-(10)-(10)----|-12---10---13---12--o||
|--7----9----5---(5)----|-12---10---14---12---||
|--9---10----7---(7)----|---------------------||
|-----------------------|--------------------o||
|-----------------------|---------------------||


  A5
   W           +W            +W            +W
|-----------|-------------|-------------|---------*|
|-----------|-------------|-------------|---------*|
|-----------|-------------|-------------|---------*|
|-----------|-------------|-------------|---------*|
|--7--------|--(7)--------|--(7)--------|--(7)----*|
|--5--------|--(5)--------|--(5)--------|--(5)----*|
|
|  W           +W            +W            +W
|-12--------|-(12)--------|-(12)--------|-(12)----*|
|-13--------|-(13)--------|-(13)--------|-(13)----*|
|-14--------|-(14)--------|-(14)--------|-(14)----*|
|-----------|-------------|-------------|---------*|
|-----------|-------------|-------------|---------*|
|-----------|-------------|-------------|---------*|




--------------------------------------------------------------------------------


Duration Legend
---------------
W - whole; H - half; Q - quarter; E - 8th; S - 16th; T - 32nd; X - 64th; a - acciaccatura
+ - note tied to previous; . - note dotted; .. - note double dotted
Uncapitalized letters represent notes that are staccato (1/2 duration)
Irregular groupings are notated above the duration line
Duration letters will always appear directly above the note/fret number it represents the
duration for.  Duration letters with no fret number below them represent rests.  Multi-
bar rests are notated in the form Wxn, where n is the number of bars to rest for.  Low
melody durations appear below the staff

Tablature Legend
----------------
 h   - hammer-on
 p   - pull-off
 b   - bend
 pb  - pre-bend
 r   - bend release (if no number after the r, then release immediately)
 /\  - slide into or out of (from/to "nowhere")
 s   - legato slide
 S   - shift slide
 - natural harmonic
[n]  - artificial harmonic
n(n) - tapped harmonic
 ~   - vibrato
 tr  - trill
 T   - tap
 TP  - trem. picking
 PM  - palm muting
\n/  - tremolo bar dip; n = amount to dip
 \n  - tremolo bar down
 n/  - tremolo bar up
/n\  - tremolo bar inverted dip
 =   - hold bend; also acts as connecting device for hammers/pulls
 <> - volume swell (louder/softer)
 x   - on rhythm slash represents muted slash
 o   - on rhythm slash represents single note slash

Misc Legend
-----------
 |  - bar
||  - double bar
||o - repeat start
o|| - repeat end
*|  - double bar (ending)
 :  - bar (freetime)
 $  - Segno
 &  - Coda
Tempo markers -  = BPM(8/16=s8/s16), where s8 = swing 8ths, s16 = swing 16ths


            
            
Suggest correction
Creating personal tab
Creating personal tab
You can edit any tab online and save it as your Personal.

You can edit, replace or remove any tab part or add personal notes – all changes will be seen only by you.

Personal tabs can be accessed anytime from any device, even offline.
Learn more »
Give kudos to tab author, rate the tab!
1 2 3 4 5
comments
print report bad tab
guest
You may want to rate the tab now too:
select rating
Wanna post a correction for this tab? Suggest correction