Oops, an error
Loading. Please wait.

I Died For You tab

version 4
version 4

Whole song

Interactive

352 views 1 this week
no commentswrite comment
1 2 3 4 5
3 more votes to show rating
add to favorites
×
Save as Personal and add changes to this tab that will be seen only by you. Learn more ›
×
You can save this tab as Personal to edit and correct it or add notes. All changes will be seen only by you. Learn more »
launch autoscroll
font size
0
reset
how to read this tab
guitar tuner
edit
Autoscroll
slow
fast
+/-
esc
set tempo
stop
INTRO
Eb||------------------------------------|----------------------------|
Bb||------------------------------------|----------------------------|
Gb||------------------------------------|----------------------------|
Db||--------5--------5------------------|-----4----5----4-----4------|
Ab||-------7--------7-------------------|--5---------------5---------|
Eb||--0---------------------------------|----------------------------|


I can't believe this now
This isn't what I planned
I lived and died and now
I just can't understand
With all the love I feel
I could never leave you
No matter what the cost
My soul 's the price to see you
-----------------------------------------------------------------------------
VERSE
Eb||------------------------------------|------------------------------|
Bb||------------------------------------|------------------------------|
Gb||------------------------------------|------------------------------|
Db||------2--------5-----4-----5--------|---2--------5-----4----4------|
Ab||-----2--------7-----5-----7---------|--2--------7-----5----5-------|
Eb||------------------------------------|------------------------------|


Oh how I love you
The pain won't go away
Oh when I need you
You're always so far away
I cry for you
Leaving myself to blame
I died for you
I gave up everything
-----------------------------------------------------------------------------

Play Intro part again
Eb||------------------------------------|----------------------------|
Bb||------------------------------------|----------------------------|
Gb||------------------------------------|----------------------------|
Db||--------5--------5------------------|-----4----5----4-----4------|
Ab||-----7--------7---------------------|--5---------------5---------|
Eb||--0---------------------------------|----------------------------|

The pain was just too much
When I finally saw her
She's happy and in love
In love with my best friend
What makes it hurt so bad
Is that I love them both
And they will never know
For love I sold my soul
-----------------------------------------------------------------------------

VERSE
||------------------------------------|----------------------------|
||------------------------------------|----------------------------|
||------------------------------------|----------------------------|
||------2--------5-----4-----5--------|---2--------5-----4----4----|
||-----2--------7-----5-----7---------|--2--------7-----5----5-----|
||------------------------------------|----------------------------|


Oh how I love you
The pain won't go away
Oh when I need you
You're always so far away
I cry for you
Leaving myself to blame
I died for you
I gave up everything
-----------------------------------------------------------------------------

SOLO RHYTHM
||------------------------------------|------------------------------|
||------------------------------------|------------------------------|
||------------------------------------|------------------------------|
||------2--------5-----4-----5--------|---2--------5-----4----4------|
||-----2--------7-----5-----7---------|--2--------7-----5----5-------|
||------------------------------------|------------------------------|

-----------------------------------------------------------------------------
ENDING

||----------------------------------|------------------------------|
||----------------------------------|------------------------------|
||----------------------------------|------------------------------|
||----2--------5-----4-----5--------|---2--------5-----4----4------|
||---2--------7-----5-----7---------|--2--------7-----5----5-------|
||----------------------------------|------------------------------|


Oh how I love you
The pain won't go away
Oh when I need you
You're always so far away
I cry for you
Leaving myself to blame
I died for you
I gave up everything
-----------------------------------------------------------------------------
Band: Iced Earth
Song: I Died For You
Album: Dark Saga
Year: 1996
Tab: Rhythm
Tuning: Half Step Down (Eb)

This how Schaffer plays it live.

            
            
Suggest correction
Creating personal tab
Creating personal tab
You can edit any tab online and save it as your Personal.

You can edit, replace or remove any tab part or add personal notes – all changes will be seen only by you.

Personal tabs can be accessed anytime from any device, even offline.
Learn more »
Give kudos to tab author, rate the tab!
1 2 3 4 5
comments
print report bad tab
guest
Wanna post a correction for this tab? Suggest correction