Oops, an error
Loading. Please wait.

Last December bass

version 1
version 1

Whole song

Interactive

234 views 3 this week
no commentswrite comment
1 2 3 4 5
3 more votes to show rating
add to favorites
×
Save as Personal and add changes to this tab that will be seen only by you. Learn more ›
×
You can save this tab as Personal to edit and correct it or add notes. All changes will be seen only by you. Learn more »
launch autoscroll
font size
0
reset
guitar tuner
edit
Autoscroll
slow
fast
+/-
esc
set tempo
stop
  Last December                                   

Transcribed by an unregistered user

                                                                      Iced Earth
Dave



      W                   W                   W                 
F#||-------------------|-------------------|-------------------|
C#||-------------------|-------------------|-------------------|
G#||-------------------|-------------------|-------------------|
D#||--0----------------|--L----------------|--1----------------|


  E  E  E   Q    Q.        Q.     E  H           Q.     E  H         
------------------------|---------------------|---------------------|
--------7--10----7------|---------------------|---------------------|
-----8------------------|---------------------|---------------------|
--L---------------------|--0------0--0--------|--0------0--0--------|


  W                   E  E  E  Q    E  Q       W                 
-------------------|----------------7-------|-------------------|
-------------------|-----------7-------7----|-------------------|
-------------------|-----5--8---------------|-------------------|
--1----------------|--L---------------------|--0----------------|


  W                   W                   E  E  E  E  E  E  Q     
-------------------|-------------------|-----------7-------------|
-------------------|-------------------|--------7-----7-----7----|
-------------------|-------------------|-----8-----------8-------|
--0----------------|--1----------------|--L----------------------|


  W                   W                   W                 
-------------------|-------------------|-------------------|
-------------------|-------------------|-------------------|
-------------------|-------------------|-------------------|
--0----------------|--0----------------|--1----------------|


  E  E  E  Q    Q.        Q.     E  H           Q.     E  H         
-----------------------|---------------------|---------------------|
-----------7----5------|---------------------|---------------------|
-----5--8--------------|---------------------|---------------------|
--L--------------------|--0------0--0--------|--0------0--0--------|


  W                   E  E  E   E  E   E  E  E     Q.     E  H         
-------------------|----------------------------|---------------------|
-------------------|-----------10--7--10--7--5--|---------------------|
-------------------|-----5--8-------------------|---------------------|
--1----------------|--L-------------------------|--0------0--0--------|


  Q.     E  H           W                   H.           Q     
---------------------|-------------------|--------------------|
---------------------|-------------------|--------------------|
---------------------|-------------------|--------------------|
--0------0--0--------|--1----------------|--L-----------------|


  S E.  E  S S S E.  E  S S    S E.  E  S S S S S S E  S S  
----------------------------|------------------------------|
----------------------------|------------------------------|
----------------------------|------------------------------|
--0-0---0--0-0-0-0---0--0-0-|--0-0---0--0-0-3-3-3-3-1--1-1-|


  S E.  E  S S S E.  E  S S    S E.  E  S S S S S S E  S S  
----------------------------|------------------------------|
----------------------------|------------------------------|
----------------------------|------------------------------|
--0-0---0--0-0-0-0---0--0-0-|--0-0---0--0-0-3-3-3-3-1--1-1-|


  S  S S S S S S S S  S S S S S S S    S  S S S S S S S S S S S S S S S  
------------------------------------|-----------------------------------|
------------------------------------|-----------------------------------|
--5h-7-------------5h-7-------------|--5h-7-----------------------------|
-------0-0-0-0-0-0------0-0-0-0-0-0-|-------0-0-0-0-0-0-3-3-3-3-1-1-1-1-|


  S  S S S S S S S S  S S S S S S S    S  S S S S S S S S S S S E  S S  
------------------------------------|----------------------------------|
------------------------------------|----------------------------------|
--5h-7-------------5h-7-------------|--5h-7----------------------------|
-------0-0-0-0-0-0------0-0-0-0-0-0-|-------0-0-0-0-0-0-3-3-3-3-1--1-1-|


  S  S S S S S S S S  S S S S S S S    S  S S S S S S S S S S S S S S S  
------------------------------------|-----------------------------------|
------------------------------------|-----------------------------------|
--5h-7-------------5h-7-------------|--5h-7-----------------------------|
-------0-0-0-0-0-0------0-0-0-0-0-0-|-------0-0-0-0-0-0-3-3-3-3-1-1-1-1-|


  S  S S S S S S S S  S S S S S S S    S  S S S S S S S S S S S E  S S  
------------------------------------|----------------------------------|
------------------------------------|----------------------------------|
--5h-7-------------5h-7-------------|--5h-7----------------------------|
-------0-0-0-0-0-0------0-0-0-0-0-0-|-------0-0-0-0-0-0-3-3-3-3-1--1-1-|


  S  E.  E  S S S  E.  E  S S    S  E.  E  S S S  E.  Q     
------------------------------|----------------------------|
------------------------------|----------------------------|
--5S-7---7--7-7-7S-5---5--5-5-|--5S-8---8--8-8-8S-5---7----|
------------------------------|----------------------------|


  S  S S S S S S S S  S S S S S S S    S  S S S S S S S S S S S S S S S  
------------------------------------|-----------------------------------|
------------------------------------|-----------------------------------|
--5h-7-------------5h-7-------------|--5h-7-----------------------------|
-------0-0-0-0-0-0------0-0-0-0-0-0-|-------0-0-0-0-0-0-3-3-3-3-1-1-1-1-|


  S  S S S S S S S S  S S S S S S S    S  S S S S S S S S S S S E  S S  
------------------------------------|----------------------------------|
------------------------------------|----------------------------------|
--5h-7-------------5h-7-------------|--5h-7----------------------------|
-------0-0-0-0-0-0------0-0-0-0-0-0-|-------0-0-0-0-0-0-3-3-3-3-1--1-1-|


  S  S S S S S S S S  S S S S S S S    S  S S S S S S S S S S S S S S S  
------------------------------------|-----------------------------------|
------------------------------------|-----------------------------------|
--5h-7-------------5h-7-------------|--5h-7-----------------------------|
-------0-0-0-0-0-0------0-0-0-0-0-0-|-------0-0-0-0-0-0-3-3-3-3-1-1-1-1-|


  S  S S S S S S S S  S S S S S S S    S  S S S S S S S S S S S E  S S  
------------------------------------|----------------------------------|
------------------------------------|----------------------------------|
--5h-7-------------5h-7-------------|--5h-7----------------------------|
-------0-0-0-0-0-0------0-0-0-0-0-0-|-------0-0-0-0-0-0-3-3-3-3-1--1-1-|


  S  E.  E  S S S  E.  E  S S    S  E.  E  S S S  E.  Q     
------------------------------|----------------------------|
------------------------------|----------------------------|
--5S-7---7--7-7-7S-5---5--5-5-|--5S-8---8--8-8-8S-5---7----|
------------------------------|----------------------------|


  S  S S S S S S S S  S S S S S S S    S  S S S S S S S S  S S S S S S S  
------------------------------------|------------------------------------|
------------------------------------|------------------------------------|
--5h-7-------------5h-7-------------|--5h-7-------------5h-7-------------|
-------0-0-0-0-0-0------0-0-0-0-0-0-|-------0-0-0-0-0-0------0-0-0-0-0-0-|


  S  E.  E  S S S  E.  E  S S    S  E.  E  S S S  E.  Q     
------------------------------|----------------------------|
------------------------------|----------------------------|
--5S-7---7--7-7-7S-5---5--5-5-|--5S-8---8--8-8-8S-5---7----|
------------------------------|----------------------------|


  S  S S T T S S S S S  S S T T S S S S  
----------------------------------------|
----------------------------------------|
--5h-7---------------5h-7---------------|
-------0-0-0-0-0-0-0------0-0-0-0-0-0-0-|


  S  S S T T S S S S S  S S T T S S S S    S  E.  E  S S S  E.  E  S S  
----------------------------------------|------------------------------|
----------------------------------------|------------------------------|
--5h-7---------------5h-7---------------|------------------------------|
-------0-0-0-0-0-0-0------0-0-0-0-0-0-0-|--7S-5---5--5-5-5S-2---2--2-2-|


  S  E.  E  S S S  E.  Q       S  S S T T S S S S S  S S T T S S S S  
----------------------------|----------------------------------------|
----------------------------|----------------------------------------|
----------------------------|--5h-7---------------5h-7---------------|
--2S-3---3--3-3-3S-0---0----|-------0-0-0-0-0-0-0------0-0-0-0-0-0-0-|


  S  S S T T S S S S S  S S T T S S S S    S  E.  E  S S S  E.  E  S S  
----------------------------------------|------------------------------|
----------------------------------------|------------------------------|
--5h-7---------------5h-7---------------|------------------------------|
-------0-0-0-0-0-0-0------0-0-0-0-0-0-0-|--7S-5---5--5-5-5S-2---2--2-2-|


  S  E.  E  S S S  E.  Q       Q    Q    E  S S S  E.   
----------------------------|--------------------------|
----------------------------|--------------------------|
----------------------------|-------------------7S-8---|
--2S-3---3--3-3-3S-0---0----|--0----0----0--0-0--------|


  Q    Q    E  S S S  E.     Q    Q    E  S S S  E.     Q    Q    E  S S S E.   
--------------------------|--------------------------|-------------------------|
--------------------------|--------------------------|-------------------------|
--5----5----5--5-5--------|--------------------------|---------------------7---|
-------------------3S-1---|--1----1----1--1-1-3p-0---|--0----0----0--0-0-0-----|


  Q    Q    E  S S S  E.     Q    Q    E  S S S  E.   
--------------------------|--------------------------|
--------------------------|--------------------------|
-------------------7S-8---|--5----5----5--5-5--------|
--0----0----0--0-0--------|-------------------3S-1---|


  Q    Q    E  S S S  E.     Q    Q    E  S S S E.     Q    Q    E  S S S  E.   
--------------------------|-------------------------|--------------------------|
--------------------------|-------------------------|--------------------------|
--------------------------|---------------------7---|-------------------7S-8---|
--1----1----1--1-1-3p-0---|--0----0----0--0-0-0-----|--0----0----0--0-0--------|


  Q    Q    E  S S S  E.     Q    Q    E  S S S  E.     Q    Q    E  S S S E.   
--------------------------|--------------------------|-------------------------|
--------------------------|--------------------------|-------------------------|
--5----5----5--5-5--------|--------------------------|---------------------7---|
-------------------3S-1---|--1----1----1--1-1-3p-0---|--0----0----0--0-0-0-----|


  Q    Q    E  S S S  E.     Q    Q    E  S S S  E.   
--------------------------|--------------------------|
--------------------------|--------------------------|
-------------------7S-8---|--5----5----5--5-5--------|
--0----0----0--0-0--------|-------------------3S-1---|


  Q    Q    E  S S S  E.     Q.     S S S S S S S S E   
--------------------------|----------------------------|
--------------------------|----------------------------|
--------------------------|----------------------------|
--1----1----1--1-1-3p-0---|--0------0-0-0-0-0-0-0-0-0--|


  S  S S T T S S S S S  S S T T S S S S    S  S S T T S S S S S S S S S S S S  
----------------------------------------|-------------------------------------|
----------------------------------------|-------------------------------------|
--5h-7---------------5h-7---------------|--5h-7-------------------------------|
-------0-0-0-0-0-0-0------0-0-0-0-0-0-0-|-------0-0-0-0-0-0-0-3-3-3-3-1-1-1-1-|


  S  S S T T S S S S S  S S T T S S S S    S  S S T T S S S S S S S S E  S S  
----------------------------------------|------------------------------------|
----------------------------------------|------------------------------------|
--5h-7---------------5h-7---------------|--5h-7------------------------------|
-------0-0-0-0-0-0-0------0-0-0-0-0-0-0-|-------0-0-0-0-0-0-0-3-3-3-3-1--1-1-|


  S  S S T T S S S S S  S S T T S S S S    S  S S T T S S S S S S S S S S S S  
----------------------------------------|-------------------------------------|
----------------------------------------|-------------------------------------|
--5h-7---------------5h-7---------------|--5h-7-------------------------------|
-------0-0-0-0-0-0-0------0-0-0-0-0-0-0-|-------0-0-0-0-0-0-0-3-3-3-3-1-1-1-1-|


  S  S S T T S S S S S  S S T T S S S S    S  S S T T S S S S S S S S E  S S  
----------------------------------------|------------------------------------|
----------------------------------------|------------------------------------|
--5h-7---------------5h-7---------------|--5h-7------------------------------|
-------0-0-0-0-0-0-0------0-0-0-0-0-0-0-|-------0-0-0-0-0-0-0-3-3-3-3-1--1-1-|


  S  E.  E  S S S  E.  E  S S    S  E.  E  S S S  E.  Q     
------------------------------|----------------------------|
------------------------------|----------------------------|
--5S-7---7--7-7-7S-5---5--5-5-|--5S-8---8--8-8-8S-5---7----|
------------------------------|----------------------------|


  S  S S S S S S S S  S S S S S S S    S  S S S S S S S S  S S S S S S S  
------------------------------------|------------------------------------|
------------------------------------|------------------------------------|
--5h-7-------------5h-7-------------|--5h-7-------------5h-7-------------|
-------0-0-0-0-0-0------0-0-0-0-0-0-|-------0-0-0-0-0-0------0-0-0-0-0-0-|


  S  E.  E  S S S  E.  E  S S    S  E.  E  S S S  E.  Q     
------------------------------|----------------------------|
------------------------------|----------------------------|
--5S-7---7--7-7-7S-5---5--5-5-|--5S-8---8--8-8-8S-5---7----|
------------------------------|----------------------------|


  S  S S T T S S S S S  S S T T S S S S  
----------------------------------------|
----------------------------------------|
--5h-7---------------5h-7---------------|
-------0-0-0-0-0-0-0------0-0-0-0-0-0-0-|


  S  S S T T S S S S S  S S T T S S S S    S  E.  E  S S S  E.  E  S S  
----------------------------------------|------------------------------|
----------------------------------------|------------------------------|
--5h-7---------------5h-7---------------|------------------------------|
-------0-0-0-0-0-0-0------0-0-0-0-0-0-0-|--7S-5---5--5-5-5S-2---2--2-2-|


  S  E.  E  S S S  E.  Q       S  S S T T S S S S S  S S T T S S S S  
----------------------------|----------------------------------------|
----------------------------|----------------------------------------|
----------------------------|--5h-7---------------5h-7---------------|
--2S-3---3--3-3-3S-0---0----|-------0-0-0-0-0-0-0------0-0-0-0-0-0-0-|


  S  S S T T S S S S S  S S T T S S S S    S  E.  E  S S S  E.  E  S S  
----------------------------------------|------------------------------|
----------------------------------------|------------------------------|
--5h-7---------------5h-7---------------|------------------------------|
-------0-0-0-0-0-0-0------0-0-0-0-0-0-0-|--7S-5---5--5-5-5S-2---2--2-2-|


  S  E.  E  S S S  E.  Q       S  S S S S S S S S  S S S S S S S  
----------------------------|------------------------------------|
----------------------------|------------------------------------|
----------------------------|--5S-7-------------5S-7-------------|
--2S-3---3--3-3-3S-0---0----|-------0-0-0-0-0-0------0-0-0-0-0-0-|


  S  S S S S S S S S S S S S S S S    E  E  H.                             
-----------------------------------|---------------------|---------------||
-----------------------------------|---------------------|---------------||
--5S-7-----------------------------|---------------------|---------------||
-------0-0-0-0-0-0-3-0-0-1-0-0-3-1-|--0------------------|---------------||




Duration Legend
---------------
W - whole
H - half
Q - quarter
E - 8th
S - 16th
T - 32nd
X - 64th
. - note dotted
|-n-|  - n-tuplets


Tablature Legend
----------------
L - tied note
x - dead note
g - grace note
(n) - ghost note
> - accentuded note
NH - natural harmonic
AH - artificial harmonic
TH - tapped harmonic
SH - semi harmonic
PH - pitch harmonic
h - hammer on
p - pull off
b - bend
br - bendRelease
pb - preBend
pbr - preBendRelease
brb - bendReleaseBend
\n/ - tremolo bar dip
\n - tremolo bar dive
-/n - tremolo bar Release up
/n\ - tremolo bar inverted dip
/n - tremolo bar return
-\n - tremolo bar Release down
S - shift slide
s - legato slide
/ -  slide into from below or out of upwards
\ -  slide into from above or out of downwards
~ - vibrato
W - wide vibrato
tr - trill
TP - tremolo picking
T - tapping
S - slap
P - pop
< - fade in
^ - brush up
v - brush down

            
            
Suggest correction
Creating personal tab
Creating personal tab
You can edit any tab online and save it as your Personal.

You can edit, replace or remove any tab part or add personal notes – all changes will be seen only by you.

Personal tabs can be accessed anytime from any device, even offline.
Learn more »
Give kudos to tab author, rate the tab!
1 2 3 4 5
comments
print report bad tab
guest
You may want to rate the tab now too:
select rating
Wanna post a correction for this tab? Suggest correction