Oops, an error
Loading. Please wait.

Pure Evil bass

version 1
version 1

Whole song

Interactive

643 views 1 this week
no commentswrite comment
1 2 3 4 5
2 more votes to show rating
add to favorites
×
Save as Personal and add changes to this tab that will be seen only by you. Learn more ›
×
You can save this tab as Personal to edit and correct it or add notes. All changes will be seen only by you. Learn more »
launch autoscroll
font size
0
reset
guitar tuner
edit
Autoscroll
slow
fast
+/-
esc
set tempo
stop
                                  Pure Evil                                     

Transcribed by an unregistered user

                                                                      Iced Earth
Dave



      H.           E  E     H.           E  E     H.           E  E   
F#||---------------------|---------------------|---------------------|
C#||---------------------|---------------------|---------------------|
G#||---------------------|---------------------|--5------------5--5--|
D#||--2------------2--2--|--5------------5--5--|---------------------|


  H.           E  E     H.           E  E     H.           E  E   
---------------------|---------------------|---------------------|
---------------------|---------------------|---------------------|
---------------------|---------------------|---------------------|
--2------------2--2--|--2------------2--2--|--5------------5--5--|


  H.           E  E     H.           E  E     Q    E  E  Q    E  E   
---------------------|---------------------|------------------------|
---------------------|---------------------|------------------------|
--5------------5--5--|---------------------|------------------------|
---------------------|--2------------2--2--|--5----5--5--5----5--5--|


  Q    E  E  Q    Q       Q    E  E  Q    E  E     Q    E  E  Q    Q     
-----------------------|------------------------|-----------------------|
-----------------------|------------------------|-----------------------|
-----------------------|------------------------|-----------------------|
--5----5--5--5----3----|--7----7--7--7----7--7--|--7----7--7--8----3----|


  Q    E  E  Q    E  E     Q    E  E  Q    Q       Q    E  E  Q    E  E   
------------------------|-----------------------|------------------------|
------------------------|-----------------------|------------------------|
------------------------|-----------------------|------------------------|
--5----5--5--5----5--5--|--5----5--5--5----3----|--7----7--7--7----7--7--|


  Q    E  E  Q    Q       Q    H.              H        E  E  E  E   
-----------------------|--------------------|-----------------------|
-----------------------|--------------------|-----------------------|
-----------------------|--------------------|-----------------------|
--7----7--7--8----3----|--5-----------------|-----------3--4--5--6--|


  Q    Q    H           S S E  Q    S S E  Q       Q    H.            
---------------------|--------------------------|--------------------|
---------------------|--------------------------|--------------------|
---------------------|--------------------------|--------------------|
--L----5-------------|--6-6-6--5----6-6-6--5----|--5-----------------|


  H        E  E  E  E     Q    Q    H           S S E  Q    S S E  Q     
-----------------------|---------------------|--------------------------|
-----------------------|---------------------|--------------------------|
-----------------------|---------------------|--------------------------|
-----------3--4--5--6--|--L----5-------------|--6-6-6--5----6-6-6--5----|


  Q    E  S S E  S S E  S S    E  S S E  S S E  E  E  E    
----------------------------|-----------------------------|
----------------------------|-----------------------------|
----------------------------|-----------------------------|
--5----5--5-5-5--5-5-5--5-5-|--5--5-5-5--5-5-6--6--6--6S--|


  E  E  E  S S E  S S E  E     S S E  Q    S S E  Q     
----------------------------|--------------------------|
----------------------------|--------------------------|
----------------------------|--------------------------|
--L--5--5--5-5-5--5-5-5--5--|--6-6-6--5----6-6-6--5----|


  Q    E  S S E  S S E  S S    E  S S E  S S E  E  E  E    
----------------------------|-----------------------------|
----------------------------|-----------------------------|
----------------------------|-----------------------------|
--5----5--5-5-5--5-5-5--5-5-|--5--5-5-5--5-5-6--6--6--6S--|


  E  E  E  S S E  S S E  E     S S E  Q    S S E  Q     
----------------------------|--------------------------|
----------------------------|--------------------------|
----------------------------|--------------------------|
--L--5--5--5-5-5--5-5-5--5--|--6-6-6--5----6-6-6--5----|


  Q    E  S S E  S S E  S S    E  S S E  S S E  E  E  E    
----------------------------|-----------------------------|
----------------------------|-----------------------------|
----------------------------|-----------------------------|
--5----5--5-5-5--5-5-5--5-5-|--5--5-5-5--5-5-6--6--6--6S--|


  E  E  E  S S E  S S E  E     S S E  Q    S S E  Q     
----------------------------|--------------------------|
----------------------------|--------------------------|
----------------------------|--------------------------|
--L--5--5--5-5-5--5-5-5--5--|--6-6-6--5----6-6-6--5----|


  Q    E  S S E  S S E  S S    E  S S E  S S E  E  E  E    
----------------------------|-----------------------------|
----------------------------|-----------------------------|
----------------------------|-----------------------------|
--5----5--5-5-5--5-5-5--5-5-|--5--5-5-5--5-5-6--6--6--6S--|


  E  E  E  S S E  S S E  E     S S E  Q    S S E  Q       W                 
----------------------------|--------------------------|-------------------|
----------------------------|--------------------------|-------------------|
----------------------------|--------------------------|-------------------|
--L--5--5--5-5-5--5-5-5--5--|--6-6-6--5----6-6-6--5----|--8----------------|


  W                   W                   H        H         
-------------------|-------------------|--------------------|
-------------------|-------------------|--------------------|
-------------------|-------------------|--------------------|
--L----------------|--7----------------|--6--------6--------|


  Q    E  S S E  S S E  S S    E  S S E  S S E  E  E  E   
----------------------------|----------------------------|
----------------------------|----------------------------|
----------------------------|----------------------------|
--5----5--5-5-5--5-5-5--5-5-|--5--5-5-5--5-5-3--4--5--6--|


  Q    Q    E  S S E  E     S S E  Q    S S E  Q       W                 
-------------------------|--------------------------|-------------------|
-------------------------|--------------------------|-------------------|
-------------------------|--------------------------|-------------------|
--L----5----5--5-5-5--5--|--6-6-6--5----6-6-6--5----|--8----------------|


  W                   W                   H        H         
-------------------|-------------------|--------------------|
-------------------|-------------------|--------------------|
-------------------|-------------------|--------------------|
--L----------------|--7----------------|--6--------6--------|


  Q    E  S S E  S S E  S S    E  S S E  S S E  E  E  E   
----------------------------|----------------------------|
----------------------------|----------------------------|
----------------------------|----------------------------|
--5----5--5-5-5--5-5-5--5-5-|--5--5-5-5--5-5-3--4--5--6--|


  Q    Q    E  S S E  E     S S E  Q    S S E  Q     
-------------------------|--------------------------|
-------------------------|--------------------------|
-------------------------|--------------------------|
--L----5----5--5-5-5--5--|--6-6-6--5----6-6-6--5----|


  Q    E  S S E  S S E  S S    E  S S E  S S E  E  E  E   
----------------------------|----------------------------|
----------------------------|----------------------------|
----------------------------|----------------------------|
--5----5--5-5-5--5-5-5--5-5-|--5--5-5-5--5-5-3--4--5--6--|


  Q    Q    E  S S E  E     S S E  Q    S S E  Q     
-------------------------|--------------------------|
-------------------------|--------------------------|
-------------------------|--------------------------|
--L----5----5--5-5-5--5--|--6-6-6--5----6-6-6--5----|


  Q    E  S S E  S S E  S S    E  S S E  S S E  E  E  E    
----------------------------|-----------------------------|
----------------------------|-----------------------------|
----------------------------|-----------------------------|
--5----5--5-5-5--5-5-5--5-5-|--5--5-5-5--5-5-6--6--6--6S--|


  E  E  E  S S E  S S E  E     S S E  Q    S S E  Q     
----------------------------|--------------------------|
----------------------------|--------------------------|
----------------------------|--------------------------|
--L--5--5--5-5-5--5-5-5--5--|--6-6-6--5----6-6-6--5----|


  Q    E  S S E  S S E  S S    E  S S E  S S E  E  E  E    
----------------------------|-----------------------------|
----------------------------|-----------------------------|
----------------------------|-----------------------------|
--5----5--5-5-5--5-5-5--5-5-|--5--5-5-5--5-5-6--6--6--6S--|


  E  E  E  S S E  S S E  E     S S E  Q    S S E  Q     
----------------------------|--------------------------|
----------------------------|--------------------------|
----------------------------|--------------------------|
--L--5--5--5-5-5--5-5-5--5--|--6-6-6--5----6-6-6--5----|


  Q    E  S S E  S S E  S S    E  S S E  S S E  E  E  E    
----------------------------|-----------------------------|
----------------------------|-----------------------------|
----------------------------|-----------------------------|
--5----5--5-5-5--5-5-5--5-5-|--5--5-5-5--5-5-6--6--6--6S--|


  E  E  E  S S E  S S E  E     S S E  Q    S S E  Q     
----------------------------|--------------------------|
----------------------------|--------------------------|
----------------------------|--------------------------|
--L--5--5--5-5-5--5-5-5--5--|--6-6-6--5----6-6-6--5----|


  Q    E  S S E  S S E  S S    E  S S E  S S E  E  E  E    
----------------------------|-----------------------------|
----------------------------|-----------------------------|
----------------------------|-----------------------------|
--5----5--5-5-5--5-5-5--5-5-|--5--5-5-5--5-5-6--6--6--6S--|


  E  E  E  S S E  S S E  E     S S E  Q    S S E  Q       W                 
----------------------------|--------------------------|-------------------|
----------------------------|--------------------------|-------------------|
----------------------------|--------------------------|-------------------|
--L--5--5--5-5-5--5-5-5--5--|--6-6-6--5----6-6-6--5----|--8----------------|


  W                   W                   H        H         
-------------------|-------------------|--------------------|
-------------------|-------------------|--------------------|
-------------------|-------------------|--------------------|
--L----------------|--7----------------|--6--------6--------|


  Q    E  S S E  S S E  S S    E  S S E  S S E  E  E  E   
----------------------------|----------------------------|
----------------------------|----------------------------|
----------------------------|----------------------------|
--5----5--5-5-5--5-5-5--5-5-|--5--5-5-5--5-5-3--4--5--6--|


  Q    Q    E  S S E  E     S S E  Q    S S E  Q       W                 
-------------------------|--------------------------|-------------------|
-------------------------|--------------------------|-------------------|
-------------------------|--------------------------|-------------------|
--L----5----5--5-5-5--5--|--6-6-6--5----6-6-6--5----|--8----------------|


  W                   W                   H        H         
-------------------|-------------------|--------------------|
-------------------|-------------------|--------------------|
-------------------|-------------------|--------------------|
--L----------------|--7----------------|--6--------6--------|


  Q    E  S S E  S S E  S S    E  S S E  S S E  E  E  E   
----------------------------|----------------------------|
----------------------------|----------------------------|
----------------------------|----------------------------|
--5----5--5-5-5--5-5-5--5-5-|--5--5-5-5--5-5-3--4--5--6--|


  Q    Q    E  S S E  E     S S E  Q    S S E  Q     
-------------------------|--------------------------|
-------------------------|--------------------------|
-------------------------|--------------------------|
--L----5----5--5-5-5--5--|--6-6-6--5----6-6-6--5----|


  Q    E  S S E  S S E  S S    E  S S E  S S E  E  E  E   
----------------------------|----------------------------|
----------------------------|----------------------------|
----------------------------|----------------------------|
--5----5--5-5-5--5-5-5--5-5-|--5--5-5-5--5-5-3--4--5--6--|


  Q    Q    E  S S E  E     S S E  Q    S S E  Q       E  Q    S S E  Q    E   
-------------------------|--------------------------|-------------------------|
-------------------------|--------------------------|-------------------------|
-------------------------|--------------------------|-------------------------|
--L----5----5--5-5-5--5--|--6-6-6--5----6-6-6--5----|--6--6----5-5-5--5----5--|


  E  Q    E  E  S S Q       E  Q    S S E  Q    E     E  Q    E  E  S S Q     
-------------------------|-------------------------|-------------------------|
-------------------------|-------------------------|-------------------------|
-------------------------|-------------------------|-------------------------|
--5--5----5--5--5-5-5----|--6--6----5-5-5--5----5--|--5--5----5--5--5-5-5----|


  E  Q    S S E  Q    E     E  Q    E  E  S S Q       E  Q    S S E  Q    E   
-------------------------|-------------------------|-------------------------|
-------------------------|-------------------------|-------------------------|
-------------------------|-------------------------|-------------------------|
--6--6----5-5-5--5----5--|--5--5----5--5--5-5-5----|--6--6----5-5-5--5----5--|


  E  Q    E  E  S S Q       E  Q    S S E  Q    E     E  Q    E  E  S S Q     
-------------------------|-------------------------|-------------------------|
-------------------------|-------------------------|-------------------------|
-------------------------|-------------------------|-------------------------|
--5--5----5--5--5-5-5----|--6--6----5-5-5--5----5--|--5--5----5--5--5-5-5----|


  E  Q    S S E  Q    E     E  Q    E  E  S S Q       E  Q    S S E  Q    E   
-------------------------|-------------------------|-------------------------|
-------------------------|-------------------------|-------------------------|
-------------------------|-------------------------|-------------------------|
--6--6----5-5-5--5----5--|--5--5----5--5--5-5-5----|--6--6----5-5-5--5----5--|


  E  Q    E  E  S S Q       E  Q    S S E  Q    E     E  Q    E  E  S S Q     
-------------------------|-------------------------|-------------------------|
-------------------------|-------------------------|-------------------------|
-------------------------|-------------------------|-------------------------|
--5--5----5--5--5-5-5----|--6--6----5-5-5--5----5--|--5--5----5--5--5-5-5----|


  E  S S E  Q    E  Q       E  S S E  S S E  E  Q       E  S S E  Q    E  Q     
-------------------------|---------------------------|-------------------------|
-------------------------|---------------------------|-------------------------|
------------7----5-------|---------------------------|------------7----5-------|
--5--5-5-5----------1----|--5--5-5-5--7-7-7--5--4----|--5--5-5-5----------1----|


  E  S S E  S S E  E  Q       E  S S E  Q    E  Q     
---------------------------|-------------------------|
---------------------------|-------------------------|
---------------------------|------------7----5-------|
--5--5-5-5--7-7-7--5--4----|--5--5-5-5----------1----|


  E  S S E  S S E  E  Q       E  S S E  Q    E  Q     
---------------------------|-------------------------|
---------------------------|-------------------------|
---------------------------|------------7----5-------|
--5--5-5-5--7-7-7--5--4----|--5--5-5-5----------1----|


  E  S S E  S S E  E  Q       W                   W                 
---------------------------|-------------------|-------------------|
---------------------------|-------------------|-------------------|
---------------------------|-------------------|-------------------|
--5--5-5-5--7-7-7--5--0----|--L----------------|--L----------------|


  E  E  E  E  E  E  E  E       E  E  E  E  E  E  E  E   
---------------------------|---------------------------|
---------------------------|---------------------------|
--8-----------7--------7S--|--12-----------8-----------|
-----0--0--0-----0--0------|------0--0--0-----0--0--0--|


  E  E  E  E  E  E  E  E     E  E  E  E  E  E  E  E   
--------------------------|--------------------------|
--------------------------|--------------------------|
--7--6--7-----------7-----|--7--8--7-----------7-----|
-----------0--0--0-----0--|-----------0--0--0-----0--|


  E  E  E  E  E  E  E  E       E  E  E  E  E  E  E  E   
---------------------------|---------------------------|
---------------------------|---------------------------|
--8-----------7--------7S--|--12-----------8-----------|
-----0--0--0-----0--0------|------0--0--0-----0--0--0--|


  E  E  E  E  E  E  E  E     E  E  E  E  E  E  E  E   
--------------------------|--------------------------|
--------------------------|--------------------------|
--7--6--7-----------7-----|--7--8--7-----------7-----|
-----------0--0--0-----0--|-----------0--0--0-----0--|


  E  E  E  E  E  E  E  E       E  E  E  E  E  E  E  E   
---------------------------|---------------------------|
---------------------------|---------------------------|
--8-----------7--------7S--|--12-----------8-----------|
-----0--0--0-----0--0------|------0--0--0-----0--0--0--|


  E  E  E  E  E  E  E  E     E  E  E  E  E  E  E  E   
--------------------------|--------------------------|
--------------------------|--------------------------|
--7--6--7-----------7-----|--7--8--7-----------7-----|
-----------0--0--0-----0--|-----------0--0--0-----0--|


  E  E  E  E  E  E  E  E       E  E  E  E  E  E  E  E   
---------------------------|---------------------------|
---------------------------|---------------------------|
--8-----------7--------7S--|--12-----------8-----------|
-----0--0--0-----0--0------|------0--0--0-----0--0--0--|


  E   E   E  S S E  E  S S S S    E   E   E  S S E  E  S S S S  
-------------------------------|-------------------------------|
-------------------------------|-------------------------------|
--7p--6h--7--------------------|--7h--8p--7--------------------|
-------------0-0-0--0--0-0-0-0-|-------------0-0-0--0--0-0-0-0-|


  E  E  E  E  E  E  E  E     E  E  E  E  E  E  E  E   
--------------------------|--------------------------|
--------------------------|--7-----------------------|
--8-----------7-----------|--------------8-----------|
-----0--0--0-----0--0--0--|-----0--0--0-----0--0--0--|


  E   E   E  S S E  E  S S S S    E   E   E  S S E  E  S S S S  
-------------------------------|-------------------------------|
-------------------------------|-------------------------------|
--7p--6h--7--------------------|--7h--8p--7--------------------|
-------------0-0-0--0--0-0-0-0-|-------------0-0-0--0--0-0-0-0-|


  E  E  E  E  E  E  E  E     E  E  E  E  E  E  E  E   
--------------------------|--------------------------|
--------------------------|--7-----------------------|
--8-----------7-----------|--------------8-----------|
-----0--0--0-----0--0--0--|-----0--0--0-----0--0--0--|


  E   E   E  S S E  E  S S S S    E   E   E  S S E  E  S S S S  
-------------------------------|-------------------------------|
-------------------------------|-------------------------------|
--7p--6h--7--------------------|--7h--8p--7--------------------|
-------------0-0-0--0--0-0-0-0-|-------------0-0-0--0--0-0-0-0-|


  E  E  E  E  E  E  E  E     E  E  E  E  E  E  E  E   
--------------------------|--------------------------|
--------------------------|--7-----------------------|
--8-----------7-----------|--------------8-----------|
-----0--0--0-----0--0--0--|-----0--0--0-----0--0--0--|


  E   E   E  S S E  E  S S S S    E   E   E  S S E  E  S S S S  
-------------------------------|-------------------------------|
-------------------------------|-------------------------------|
--7p--6h--7--------------------|--7h--8p--7--------------------|
-------------0-0-0--0--0-0-0-0-|-------------0-0-0--0--0-0-0-0-|


  E  E  E  E  E  E  E  E     E  E  E  E  E  E  E  E   
--------------------------|--------------------------|
--------------------------|--7-----------------------|
--8-----------7-----------|--------------8-----------|
-----0--0--0-----0--0--0--|-----0--0--0-----0--0--0--|


  E   E   E  S S E  E  S S S S    E   E   E  S S E  E  S S S S  
-------------------------------|-------------------------------|
-------------------------------|-------------------------------|
--7p--6h--7--------------------|--7h--8p--7--------------------|
-------------0-0-0--0--0-0-0-0-|-------------0-0-0--0--0-0-0-0-|


  E  E  E  E  E  E  E  E     E  E  E  E  E  E  E  E   
--------------------------|--------------------------|
--------------------------|--7-----------------------|
--8-----------7-----------|--------------8-----------|
-----0--0--0-----0--0--0--|-----0--0--0-----0--0--0--|


  E   E   E  S S E  E  S S S S    E   E   E  S S E  E  S S S S  
-------------------------------|-------------------------------|
-------------------------------|-------------------------------|
--7p--6h--7--------------------|--7h--8p--7--------------------|
-------------0-0-0--0--0-0-0-0-|-------------0-0-0--0--0-0-0-0-|


  E  E  E  E  E  E  E  E     E  E  E  E  E  E  E  E   
--------------------------|--------------------------|
--------------------------|--7-----------------------|
--8-----------7-----------|--------------8-----------|
-----0--0--0-----0--0--0--|-----0--0--0-----0--0--0--|


  E   E   E  S S E  E  S S S S    E   E   E  S S E  E  S S S S    E  E  E  E   
-------------------------------|-------------------------------|--------------|
-------------------------------|-------------------------------|--------------|
--7p--6h--7--------------------|--7h--8p--7--------------------|--------------|
-------------0-0-0--0--0-0-0-0-|-------------0-0-0--0--0-0-0-0-|--1--0--1--0--|


  E  S S E  S S E  S S E  S S    E  S S E  S S E  E  E  E   
------------------------------|----------------------------|
------------------------------|----------------------------|
------------------------------|----------------------------|
--L--0-0-0--0-0-0--0-0-0--0-0-|--0--0-0-0--0-0-1--0--1--3--|


  E  S S E  S S E  S S E  S S    E  S S E  S S E  E  E  E   
------------------------------|----------------------------|
------------------------------|----------------------------|
------------------------------|----------------------------|
--L--3-3-3--3-3-3--3-3-3--3-3-|--3--3-3-3--3-3-1--0--1--0--|


  E  S S E  S S E  S S E  S S    E  S S E  S S E  E  E  E   
------------------------------|----------------------------|
------------------------------|----------------------------|
------------------------------|----------------------------|
--L--0-0-0--0-0-0--0-0-0--0-0-|--0--0-0-0--0-0-1--0--1--3--|


  E  S S E  S S E  S S E  S S    E  S S E  S S E  E  E  E   
------------------------------|----------------------------|
------------------------------|----------------------------|
------------------------------|----------------------------|
--L--3-3-3--3-3-3--3-3-3--3-3-|--3--3-3-3--3-3-1--0--1--0--|


  E  S S E  S S E  S S E  S S    E  S S E  S S E  E  E  E   
------------------------------|----------------------------|
------------------------------|----------------------------|
------------------------------|----------------------------|
--L--0-0-0--0-0-0--0-0-0--0-0-|--0--0-0-0--0-0-1--0--1--3--|


  E  S S E  S S E  S S E  S S    E  S S E  S S E  E  E  E   
------------------------------|----------------------------|
------------------------------|----------------------------|
------------------------------|----------------------------|
--L--3-3-3--3-3-3--3-3-3--3-3-|--3--3-3-3--3-3-1--0--1--0--|


  E  S S E  S S E  S S E  S S    E  S S E  S S E  E  E  E   
------------------------------|----------------------------|
------------------------------|----------------------------|
------------------------------|----------------------------|
--L--0-0-0--0-0-0--0-0-0--0-0-|--0--0-0-0--0-0-1--0--1--3--|


  E  S S E  S S E  S S E  S S    E  Q.        E  S S E  S S E  S S S S E   
------------------------------|------------|------------------------------|
------------------------------|------------|------------------------------|
------------------------------|------------|------------------------------|
--L--3-3-3--3-3-3--3-3-3--3-3-|--3---------|--0--0-0-0--0-0-0--0-0-1-0-1--|


  E  S S E  S S E  S S S S E     E  S S E  S S E  S S S S E   
------------------------------|------------------------------|
------------------------------|------------------------------|
------------------------------|------------------------------|
--3--3-3-3--3-3-3--3-3-1-0-1--|--0--0-0-0--0-0-0--0-0-1-0-1--|


  E  S S E  S S E  S S S S E     E  S S E  S S E  S S S S E   
------------------------------|------------------------------|
------------------------------|------------------------------|
------------------------------|------------------------------|
--3--3-3-3--3-3-3--3-3-1-0-1--|--0--0-0-0--0-0-0--0-0-1-0-1--|


  E  S S E  S S E  S S S S E     E  S S E  S S E  S S S S E   
------------------------------|------------------------------|
------------------------------|------------------------------|
------------------------------|------------------------------|
--3--3-3-3--3-3-3--3-3-1-0-1--|--0--0-0-0--0-0-0--0-0-1-0-1--|


  E  S S E  S S E  E  E  E     S S S S S S S S S S S S S S S S  
----------------------------|----------------------------------|
----------------------------|----------------------------------|
----------------5--8--5--8--|--7-7-7-7-7-7-7-7-7-7-7-7-7-7-7-7-|
--3--3-3-3--3-3-------------|----------------------------------|


  S S S S S S S S S S S  E  S E     S S S S S S S S S S S S S S S S  
---------------------------------|----------------------------------|
---------------------------------|----------------------------------|
--7-7-7-7-7-7-7-7-8-7-8-10--8-7--|--5-5-5-5-5-5-5-5-5-5-5-5-5-5-5-5-|
---------------------------------|----------------------------------|


  S S S S S S S E  S S S Q       S S S S S S S S S S S S S S S S  
------------------------------|----------------------------------|
------------------------------|----------------------------------|
------------------------------|--7-7-7-7-7-7-7-7-7-7-7-7-7-7-7-7-|
--6-6-6-6-6-6-6-5--5-5-5-5----|----------------------------------|


  S S S S S S S S S S S  E  S E     S S S S S S S S S S S S S S S S  
---------------------------------|----------------------------------|
---------------------------------|----------------------------------|
--7-7-7-7-7-7-7-7-8-7-8-10--8-7--|--5-5-5-5-5-5-5-5-5-5-5-5-5-5-5-5-|
---------------------------------|----------------------------------|


  S S S S S S S E  S S S Q       S S S S S S S S S S S S S S S S  
------------------------------|----------------------------------|
------------------------------|----------------------------------|
------------------------------|--7-7-7-7-7-7-7-7-7-7-7-7-7-7-7-7-|
--6-6-6-6-6-6-6-5--5-5-5-5----|----------------------------------|


  S S S S S S S S S S S  E  S E     S S S S S S S S S S S S S S S S  
---------------------------------|----------------------------------|
---------------------------------|----------------------------------|
--7-7-7-7-7-7-7-7-8-7-8-10--8-7--|--5-5-5-5-5-5-5-5-5-5-5-5-5-5-5-5-|
---------------------------------|----------------------------------|


                                  |---3---|   |---3---|  |--3--|   |---3---|   
  S S S S S S S S E  E  E  E      E   E   E   E   E   E  E  E  E   E   E   E   
------------------------------|-----------------------------------------------|
------------------------------|-----------------------------------10--10--10--|
------------------5--8--5--8--|--------------10--10--10--9--9--9--------------|
--6-6-6-6-6-6-6-6-------------|--12--12--12-----------------------------------|


  |--3--|  |--3--|  |--3--|  |--3--|   
  E  E  E  E  E  E  E  E  E  E  E  E   
-----------8--8--8--9--9--9-----------|
--9--9--9--------------------9--9--9--|
--------------------------------------|
--------------------------------------|


   |---3---|   |---3---|  |--3--|   |---3---|   
   E   E   E   E   E   E  E  E  E   E   E   E   
-----------------------------------------------|
--10--10--10--10--10--10--9--9--9--12--12--12--|
-----------------------------------------------|
-----------------------------------------------|


   |---3---|   |---3---|  |--3--|   |---3---|   
   E   E   E   E   E   E  E  E  E   E   E   E   
-----------------------------------------------|
-----------------------------------10--10--10--|
--------------10--10--10--9--9--9--------------|
--12--12--12-----------------------------------|


  |--3--|  |--3--|  |--3--|  |--3--|   
  E  E  E  E  E  E  E  E  E  E  E  E   
-----------8--8--8--9--9--9-----------|
--9--9--9--------------------9--9--9--|
--------------------------------------|
--------------------------------------|


   |---3---|   |---3---|  |--3--|   |---3---|                        
   E   E   E   E   E   E  E  E  E   E   E   E     Q    H.            
-----------------------------------------------|--------------------|
--10--10--10--10--10--10--9--9--9--12--12--12--|--------------------|
-----------------------------------------------|--------------------|
-----------------------------------------------|--5-----------------|


  H        E  E  E  E     Q    Q    H           S S E  Q    S S E  Q     
-----------------------|---------------------|--------------------------|
-----------------------|---------------------|--------------------------|
-----------------------|---------------------|--------------------------|
-----------3--4--5--6--|--L----5-------------|--6-6-6--5----6-6-6--5----|


  Q    H.              H        E  E  E  E     Q    Q    H         
--------------------|-----------------------|---------------------|
--------------------|-----------------------|---------------------|
--------------------|-----------------------|---------------------|
--5-----------------|-----------3--4--5--6--|--L----5-------------|


  S S E  Q    S S E  Q       Q    E  S S E  S S E  S S  
--------------------------|----------------------------|
--------------------------|----------------------------|
--------------------------|----------------------------|
--6-6-6--5----6-6-6--5----|--5----5--5-5-5--5-5-5--5-5-|


  E  S S E  S S E  E  E  E      E  E  E  S S E  S S E  E   
-----------------------------|----------------------------|
-----------------------------|----------------------------|
-----------------------------|----------------------------|
--5--5-5-5--5-5-6--6--6--6S--|--L--5--5--5-5-5--5-5-5--5--|


  S S E  Q    S S E  Q       Q    E  S S E  S S E  S S  
--------------------------|----------------------------|
--------------------------|----------------------------|
--------------------------|----------------------------|
--6-6-6--5----6-6-6--5----|--5----5--5-5-5--5-5-5--5-5-|


  E  S S E  S S E  E  E  E      E  E  E  S S E  S S E  E   
-----------------------------|----------------------------|
-----------------------------|----------------------------|
-----------------------------|----------------------------|
--5--5-5-5--5-5-6--6--6--6S--|--L--5--5--5-5-5--5-5-5--5--|


  S S E  Q    S S E  Q       Q    E  S S E  S S E  S S  
--------------------------|----------------------------|
--------------------------|----------------------------|
--------------------------|----------------------------|
--6-6-6--5----6-6-6--5----|--5----5--5-5-5--5-5-5--5-5-|


  E  S S E  S S E  E  E  E      E  E  E  S S E  S S E  E   
-----------------------------|----------------------------|
-----------------------------|----------------------------|
-----------------------------|----------------------------|
--5--5-5-5--5-5-6--6--6--6S--|--L--5--5--5-5-5--5-5-5--5--|


  S S E  Q    S S E  Q       Q    E  S S E  S S E  S S  
--------------------------|----------------------------|
--------------------------|----------------------------|
--------------------------|----------------------------|
--6-6-6--5----6-6-6--5----|--5----5--5-5-5--5-5-5--5-5-|


  E  S S E  S S E  E  E  E      E  E  E  S S E  S S E  E   
-----------------------------|----------------------------|
-----------------------------|----------------------------|
-----------------------------|----------------------------|
--5--5-5-5--5-5-6--6--6--6S--|--L--5--5--5-5-5--5-5-5--5--|


  S S E  Q    S S E  Q       W                   W                 
--------------------------|-------------------|-------------------|
--------------------------|-------------------|-------------------|
--------------------------|-------------------|-------------------|
--6-6-6--5----6-6-6--5----|--8----------------|--L----------------|


  W                   H        H           Q    E  S S E  S S E  S S  
-------------------|--------------------|----------------------------|
-------------------|--------------------|----------------------------|
-------------------|--------------------|----------------------------|
--7----------------|--6--------6--------|--5----5--5-5-5--5-5-5--5-5-|


  E  S S E  S S E  E  E  E     Q    Q    E  S S E  E   
----------------------------|-------------------------|
----------------------------|-------------------------|
----------------------------|-------------------------|
--5--5-5-5--5-5-3--4--5--6--|--L----5----5--5-5-5--5--|


  S S E  Q    S S E  Q       W                   W                 
--------------------------|-------------------|-------------------|
--------------------------|-------------------|-------------------|
--------------------------|-------------------|-------------------|
--6-6-6--5----6-6-6--5----|--8----------------|--L----------------|


  W                   H        H           Q    E  S S E  S S E  S S  
-------------------|--------------------|----------------------------|
-------------------|--------------------|----------------------------|
-------------------|--------------------|----------------------------|
--7----------------|--6--------6--------|--5----5--5-5-5--5-5-5--5-5-|


  E  S S E  S S E  E  E  E     Q    Q    E  S S E  E   
----------------------------|-------------------------|
----------------------------|-------------------------|
----------------------------|-------------------------|
--5--5-5-5--5-5-3--4--5--6--|--L----5----5--5-5-5--5--|


  S S E  Q    S S E  Q       Q    E  S S E  S S E  S S  
--------------------------|----------------------------|
--------------------------|----------------------------|
--------------------------|----------------------------|
--6-6-6--5----6-6-6--5----|--5----5--5-5-5--5-5-5--5-5-|


  E  S S E  S S E  E  E  E     Q    Q    E  S S E  E   
----------------------------|-------------------------|
----------------------------|-------------------------|
----------------------------|-------------------------|
--5--5-5-5--5-5-3--4--5--6--|--L----5----5--5-5-5--5--|


  S S E  Q    S S E  Q       H.           E  E     H.           E  E   
--------------------------|---------------------|---------------------|
--------------------------|---------------------|---------------------|
--------------------------|---------------------|---------------------|
--6-6-6--5----6-6-6--5----|--2------------2--2--|--5------------5--5--|


  H.           E  E     H.           E  E     H.           E  E   
---------------------|---------------------|---------------------|
---------------------|---------------------|---------------------|
--5------------5--5--|---------------------|---------------------|
---------------------|--2------------2--2--|--2------------2--2--|


  H.           E  E     H.           E  E     H.           E  E   
---------------------|---------------------|---------------------|
---------------------|---------------------|---------------------|
---------------------|--5------------5--5--|---------------------|
--5------------5--5--|---------------------|--2------------2--2--|


  Q    E  E  Q    E  E     Q    E  E  Q    Q       Q    E  E  Q    E  E   
------------------------|-----------------------|------------------------|
------------------------|-----------------------|------------------------|
------------------------|-----------------------|------------------------|
--5----5--5--5----5--5--|--5----5--5--5----3----|--7----7--7--7----7--7--|


  Q    E  E  Q    Q       Q    E  E  Q    E  E     Q    E  E  Q    Q     
-----------------------|------------------------|-----------------------|
-----------------------|------------------------|-----------------------|
-----------------------|------------------------|-----------------------|
--7----7--7--8----3----|--5----5--5--5----5--5--|--5----5--5--5----3----|


  Q    E  E  Q    E  E     Q    E  E  Q    Q       E  E  E  E  E  E  E  E   
------------------------|-----------------------|--------------------------|
------------------------|-----------------------|--------------------------|
------------------------|-----------------------|--8-----------7-----------|
--7----7--7--7----7--7--|--7----7--7--8----3----|-----0--0--0-----0--0--0--|


  E  E  E  E  E  E  E  E     E   E   E  S S E  E  S S S S  
--------------------------|-------------------------------|
--7-----------------------|-------------------------------|
--------------8-----------|--7p--6h--7--------------------|
-----0--0--0-----0--0--0--|-------------0-0-0--0--0-0-0-0-|


  E   E   E  S S E  E  S S S S    E  E  E  E  E  E  E  E   
-------------------------------|--------------------------|
-------------------------------|--------------------------|
--7h--8p--7--------------------|--8-----------7-----------|
-------------0-0-0--0--0-0-0-0-|-----0--0--0-----0--0--0--|


  E  E  E  E  E  E  E  E     E   E   E  S S E  E  S S S S  
--------------------------|-------------------------------|
--7-----------------------|-------------------------------|
--------------8-----------|--7p--6h--7--------------------|
-----0--0--0-----0--0--0--|-------------0-0-0--0--0-0-0-0-|


  E   E   E  S S E  E  S S S S    E  E  E  E  E  E  E  E   
-------------------------------|--------------------------|
-------------------------------|--------------------------|
--7h--8p--7--------------------|--8-----------7-----------|
-------------0-0-0--0--0-0-0-0-|-----0--0--0-----0--0--0--|


  E  E  E  E  E  E  E  E     E   E   E  S S E  E  S S S S  
--------------------------|-------------------------------|
--7-----------------------|-------------------------------|
--------------8-----------|--7p--6h--7--------------------|
-----0--0--0-----0--0--0--|-------------0-0-0--0--0-0-0-0-|


  E   E   E  S S E  E  S S S S    E  E  E  E  E  E  E  E   
-------------------------------|--------------------------|
-------------------------------|--------------------------|
--7h--8p--7--------------------|--8-----------7-----------|
-------------0-0-0--0--0-0-0-0-|-----0--0--0-----0--0--0--|


  E  E  E  E  E  E  E  E     E   E   E  S S E  E  S S S S  
--------------------------|-------------------------------|
--7-----------------------|-------------------------------|
--------------8-----------|--7p--6h--7--------------------|
-----0--0--0-----0--0--0--|-------------0-0-0--0--0-0-0-0-|


  E   E   E  S S E  E  S S S S    E  E  E  E  E  E  E  E   
-------------------------------|--------------------------|
-------------------------------|--------------------------|
--7h--8p--7--------------------|--8-----------7-----------|
-------------0-0-0--0--0-0-0-0-|-----0--0--0-----0--0--0--|


  E  E  E  E  E  E  E  E     E   E   E  S S E  E  S S S S  
--------------------------|-------------------------------|
--7-----------------------|-------------------------------|
--------------8-----------|--7p--6h--7--------------------|
-----0--0--0-----0--0--0--|-------------0-0-0--0--0-0-0-0-|


  E   E   E  S S E  E  S S S S    E  E  E  E  E  E  E  E   
-------------------------------|--------------------------|
-------------------------------|--------------------------|
--7h--8p--7--------------------|--8-----------7-----------|
-------------0-0-0--0--0-0-0-0-|-----0--0--0-----0--0--0--|


  E  E  E  E  E  E  E  E     E   E   E  S S E  E  S S S S  
--------------------------|-------------------------------|
--7-----------------------|-------------------------------|
--------------8-----------|--7p--6h--7--------------------|
-----0--0--0-----0--0--0--|-------------0-0-0--0--0-0-0-0-|


  E   E   E  S S E  E  S S S S    E  E  E  E  E  E  E  E   
-------------------------------|--------------------------|
-------------------------------|--------------------------|
--7h--8p--7--------------------|--8-----------7-----------|
-------------0-0-0--0--0-0-0-0-|-----0--0--0-----0--0--0--|


  E  E  E  E  E  E  E  E     E   E   E  S S E  E  S S S S  
--------------------------|-------------------------------|
--7-----------------------|-------------------------------|
--------------8-----------|--7p--6h--7--------------------|
-----0--0--0-----0--0--0--|-------------0-0-0--0--0-0-0-0-|


  E   E   E  S S E  E  S S S S    E  E  E  E  E  E  E  E   
-------------------------------|--------------------------|
-------------------------------|--------------------------|
--7h--8p--7--------------------|--8-----------7-----------|
-------------0-0-0--0--0-0-0-0-|-----0--0--0-----0--0--0--|


  E  E  E  E  E  E  E  E     E   E   E  H        E     W                  
--------------------------|-------------------------|-------------------||
--7-----------------------|-------------------------|-------------------||
--------------8-----------|--7p--6h--7--------------|-------------------||
-----0--0--0-----0--0--0--|-------------------------|-------------------||




Duration Legend
---------------
W - whole
H - half
Q - quarter
E - 8th
S - 16th
T - 32nd
X - 64th
. - note dotted
|-n-|  - n-tuplets


Tablature Legend
----------------
L - tied note
x - dead note
g - grace note
(n) - ghost note
> - accentuded note
NH - natural harmonic
AH - artificial harmonic
TH - tapped harmonic
SH - semi harmonic
PH - pitch harmonic
h - hammer on
p - pull off
b - bend
br - bendRelease
pb - preBend
pbr - preBendRelease
brb - bendReleaseBend
\n/ - tremolo bar dip
\n - tremolo bar dive
-/n - tremolo bar Release up
/n\ - tremolo bar inverted dip
/n - tremolo bar return
-\n - tremolo bar Release down
S - shift slide
s - legato slide
/ -  slide into from below or out of upwards
\ -  slide into from above or out of downwards
~ - vibrato
W - wide vibrato
tr - trill
TP - tremolo picking
T - tapping
S - slap
P - pop
< - fade in
^ - brush up
v - brush down

            
            
Suggest correction
Creating personal tab
Creating personal tab
You can edit any tab online and save it as your Personal.

You can edit, replace or remove any tab part or add personal notes – all changes will be seen only by you.

Personal tabs can be accessed anytime from any device, even offline.
Learn more »
Give kudos to tab author, rate the tab!
1 2 3 4 5
comments
print report bad tab
guest
You may want to rate the tab now too:
select rating
Wanna post a correction for this tab? Suggest correction