Oops, an error
Loading. Please wait.

The Phantom Opera Ghost bass

version 1
version 1

Whole song

Interactive

1,249 views 6 this week
no commentswrite comment
1 2 3 4 5
3 more votes to show rating
add to favorites
×
Save as Personal and add changes to this tab that will be seen only by you. Learn more ›
×
You can save this tab as Personal to edit and correct it or add notes. All changes will be seen only by you. Learn more »
launch autoscroll
font size
0
reset
guitar tuner
edit
Autoscroll
slow
fast
+/-
esc
set tempo
stop
                            The Phantom Opera Ghost                             

Transcribed by FroazenEarth

                                                                      Iced Earth
Bass



      E  E   E  E   E  E   E  E      E  E  E  E  Q    Q     
F#||-------------------7---------|-------------------------|
C#||--7--9--10--7--10-----10--9--|--10--7--9--6--7----7----|
G#||-----------------------------|-------------------------|
D#||-----------------------------|-------------------------|


  E  E   E  E   E  E   E  E      E  E  E  E  Q    Q       E  E  E  E  H         
-------------------7---------|-------------------------|-----------------------|
--7--9--10--7--10-----10--9--|--10--7--9--6--7----7----|--2--3--5--0--2--------|
-----------------------------|-------------------------|-----------------------|
-----------------------------|-------------------------|-----------------------|


  E  E  E  E  H           E  E  E  E  E  Q.        E  E  E  E  E  Q.      
-----------------------|--------------3--2------|--L---------------------|
-----------------------|-----2--3--5------------|------------------------|
--3--2-----2--0--------|--L---------------------|-----3--2-----2--0------|
--------3--------------|------------------------|-----------3------------|


  E  E   E  E   E  E   E  E      E  E  E  E  Q    Q     
-------------------7---------|-------------------------|
--7--9--10--7--10-----10--9--|--10--7--9--6--7----7----|
-----------------------------|-------------------------|
-----------------------------|-------------------------|


  E  E   E  E   E  E   E  E      E  E  E  E  Q    Q       E  E  E  E  H         
-------------------7---------|-------------------------|-----------------------|
--7--9--10--7--10-----10--9--|--10--7--9--6--7----7----|--2--3--5--0--2--------|
-----------------------------|-------------------------|-----------------------|
-----------------------------|-------------------------|-----------------------|


  E  E  E  E  H           E  E  E  E  E  Q.        E  E  E  E  E  Q.      
-----------------------|--------------3--2------|--L---------------------|
-----------------------|-----2--3--5------------|------------------------|
--3--2-----2--0--------|--L---------------------|-----3--2-----2--0------|
--------3--------------|------------------------|-----------3------------|


  W                   E  S S E  Q    Q    E     E  E  E  E  H         
-------------------|-------------------------|-----------------------|
-------------------|-------------------------|-----------------------|
--L----------------|-------------------------|-----------------------|
-------------------|--5--5-5-5--5----3----6--|-----6-----6--5--------|


  E  S S E  Q    Q    E     E  E  E  E  H           E  S S E  H         E   
-------------------------|-----------------------|-------------------------|
-------------------------|-----------------------|-------------------------|
-------------------------|-----------------------|-------------------------|
--5--5-5-5--5----3----6--|-----6-----6--5--------|--8--8-8-8--8\--------6--|


  E  S S E  H         S S    E  S S E  Q    Q    E     E  E  E  E  H         
--------------------------|-------------------------|-----------------------|
--------------------------|-------------------------|-----------------------|
--------------------------|-------------------------|-----------------------|
--6--6-6-6--6\--------5-5-|--5--5-5-5--5----3----6--|-----6-----6--5--------|


  E  S S E  Q    Q    E     E  E  E  E  H           E  S S E  H         E   
-------------------------|-----------------------|-------------------------|
-------------------------|-----------------------|-------------------------|
-------------------------|-----------------------|-------------------------|
--5--5-5-5--5----3----6--|-----6-----6--5--------|--8--8-8-8--8\--------6--|


  E  S S E  H         E     E  Q    S S E  Q    E   
-------------------------|-------------------------|
-------------------------|-------------------------|
-------------------------|--0-------0-0-0-------0--|
--6--6-6-6--6\--------L--|-------------------------|


          |-3-|                                        
  E  Q    S S S E  E  E  E     E  Q    S S E  Q    E   
----------------------------|-------------------------|
----------------------------|-------------------------|
--0-------0-0-0-0--0-----0--|--0-------0-0-0-------0--|
----------------------------|-------------------------|


          |-3-|                                        
  E  Q    S S S E  E  E  E     E  Q    S S E  Q    E   
----------------------------|-------------------------|
----------------------------|-------------------------|
--0-------0-0-0-0--0-----0--|--0-------0-0-0-------0--|
----------------------------|-------------------------|


          |-3-|                                        
  E  Q    S S S E  E  E  E     E  Q    S S E  Q    E   
----------------------------|-------------------------|
----------------------------|-------------------------|
--0-------0-0-0-0--0-----0--|--0-------0-0-0-------0--|
----------------------------|-------------------------|


          |-3-|                                          
  E  Q    S S S E  E  E  E     E  S S E  E  E  E  E  E   
----------------------------|---------------------------|
----------------------------|---------------------------|
--0-------0-0-0-0--0-----0--|---------------------------|
----------------------------|--0--0-0-0--0--0--0--0--0--|


  E  E  E  E  E  S S E  E     Q    E  S S E  E  Q     
---------------------------|-------------------------|
---------------------------|-------------------------|
---------------------------|-------------------------|
--1--0--0--0--0--0-0-0--0--|--3----3--3-3-3--1--1----|


  E  E  E  S S E  E  E  E     E  S S E  E  E  E  E  E   
---------------------------|---------------------------|
---------------------------|---------------------------|
---------------------------|---------------------------|
--1--0--0--0-0-0--0--0--0--|--0--0-0-0--0--0--0--0--0--|


  E  E  E  E  E  S S E  E     Q    E  S S E  E  Q     
---------------------------|-------------------------|
---------------------------|-------------------------|
---------------------------|-------------------------|
--1--0--0--0--0--0-0-0--0--|--3----3--3-3-3--1--1----|


  E  E  E  S S E  E  E  E     E  Q    S S E  Q    E   
---------------------------|-------------------------|
---------------------------|-------------------------|
---------------------------|--0-------0-0-0-------0--|
--1--0--0--0-0-0--0--0--0--|-------------------------|


          |-3-|                                        
  E  Q    S S S E  E  E  E     E  Q    S S E  Q    E   
----------------------------|-------------------------|
----------------------------|-------------------------|
--0-------0-0-0-0--0-----0--|--0-------0-0-0-------0--|
----------------------------|-------------------------|


          |-3-|                                        
  E  Q    S S S E  E  E  E     E  Q    S S E  Q    E   
----------------------------|-------------------------|
----------------------------|-------------------------|
--0-------0-0-0-0--0-----0--|--0-------0-0-0-------0--|
----------------------------|-------------------------|


          |-3-|                                        
  E  Q    S S S E  E  E  E     E  Q    S S E  Q    E   
----------------------------|-------------------------|
----------------------------|-------------------------|
--0-------0-0-0-0--0-----0--|--0-------0-0-0-------0--|
----------------------------|-------------------------|


          |-3-|                                          
  E  Q    S S S E  E  E  E     E  S S E  E  E  E  E  E   
----------------------------|---------------------------|
----------------------------|---------------------------|
--0-------0-0-0-0--0-----0--|---------------------------|
----------------------------|--0--0-0-0--0--0--0--0--0--|


  E  E  E  E  E  S S E  E     Q    E  S S E  E  Q     
---------------------------|-------------------------|
---------------------------|-------------------------|
---------------------------|-------------------------|
--1--0--0--0--0--0-0-0--0--|--3----3--3-3-3--1--1----|


  E  E  E  S S E  E  E  E     E  S S E  E  E  E  E  E   
---------------------------|---------------------------|
---------------------------|---------------------------|
---------------------------|---------------------------|
--1--0--0--0-0-0--0--0--0--|--0--0-0-0--0--0--0--0--0--|


  E  E  E  E  E  S S E  E     Q    E  S S E  E  Q     
---------------------------|-------------------------|
---------------------------|-------------------------|
---------------------------|-------------------------|
--1--0--0--0--0--0-0-0--0--|--3----3--3-3-3--1--1----|


  E  E  E  S S E  E  E  E     Q    E  S S E  S S E  S S  
---------------------------|----------------------------|
---------------------------|----------------------------|
---------------------------|----------------------------|
--1--0--0--0-0-0--0--0--0--|--5----5--5-5-5--5-5-5--5-5-|


  E  S S E  Q    Q    E     E  E  E  S S E  S S E  S S  
-------------------------|-----------------------------|
-------------------------|-----------------------------|
-------------------------|-----------------------------|
--5--5-5-5--6----3----3--|--3--5--5--5-5-5--5-5-5--5-5-|


  E  S S E  S S E  S S E  E     Q    E  S S E  S S E  S S  
-----------------------------|----------------------------|
-----------------------------|----------------------------|
-----------------------------|----------------------------|
--5--5-5-5--5-5-5--5-5-5--3--|--5----5--5-5-5--5-5-5--5-5-|


  E  S S E  Q    Q    E     E  E  E  S S E  S S E  S S  
-------------------------|-----------------------------|
-------------------------|-----------------------------|
-------------------------|-----------------------------|
--5--5-5-5--6----3----3--|--3--5--5--5-5-5--5-5-5--5-5-|


  E  S S E  S S E  S S E  E     E  Q    S S E  Q    E   
-----------------------------|-------------------------|
-----------------------------|-------------------------|
-----------------------------|--0-------0-0-0-------0--|
--5--5-5-5--5-5-5--5-5-5--5--|-------------------------|


          |-3-|                                        
  E  Q    S S S E  E  E  E     E  Q    S S E  Q    E   
----------------------------|-------------------------|
----------------------------|-------------------------|
--0-------0-0-0-0--0-----0--|--0-------0-0-0-------0--|
----------------------------|-------------------------|


          |-3-|                                        
  E  Q    S S S E  E  E  E     E  Q    S S E  Q    E   
----------------------------|-------------------------|
----------------------------|-------------------------|
--0-------0-0-0-0--0-----0--|--0-------0-0-0-------0--|
----------------------------|-------------------------|


          |-3-|                                        
  E  Q    S S S E  E  E  E     E  Q    S S E  Q    E   
----------------------------|-------------------------|
----------------------------|-------------------------|
--0-------0-0-0-0--0-----0--|--0-------0-0-0-------0--|
----------------------------|-------------------------|


          |-3-|                                          
  E  Q    S S S E  E  E  E     E  S S E  E  E  E  E  E   
----------------------------|---------------------------|
----------------------------|---------------------------|
--0-------0-0-0-0--0-----0--|---------------------------|
----------------------------|--0--0-0-0--0--0--0--0--0--|


  E  E  E  E  E  S S E  E     Q    E  S S E  E  Q     
---------------------------|-------------------------|
---------------------------|-------------------------|
---------------------------|-------------------------|
--1--0--0--0--0--0-0-0--0--|--3----3--3-3-3--1--1----|


  E  E  E  S S E  E  E  E     E  S S E  E  E  E  E  E   
---------------------------|---------------------------|
---------------------------|---------------------------|
---------------------------|---------------------------|
--1--0--0--0-0-0--0--0--0--|--0--0-0-0--0--0--0--0--0--|


  E  E  E  E  E  S S E  E     Q    E  S S E  E  Q     
---------------------------|-------------------------|
---------------------------|-------------------------|
---------------------------|-------------------------|
--1--0--0--0--0--0-0-0--0--|--3----3--3-3-3--1--1----|


  E  E  E  S S E  E  E  E     E  Q    S S E  Q    E   
---------------------------|-------------------------|
---------------------------|-------------------------|
---------------------------|--0-------0-0-0-------0--|
--1--0--0--0-0-0--0--0--0--|-------------------------|


          |-3-|                                        
  E  Q    S S S E  E  E  E     E  Q    S S E  Q    E   
----------------------------|-------------------------|
----------------------------|-------------------------|
--0-------0-0-0-0--0-----0--|--0-------0-0-0-------0--|
----------------------------|-------------------------|


          |-3-|                                        
  E  Q    S S S E  E  E  E     E  Q    S S E  Q    E   
----------------------------|-------------------------|
----------------------------|-------------------------|
--0-------0-0-0-0--0-----0--|--0-------0-0-0-------0--|
----------------------------|-------------------------|


          |-3-|                                        
  E  Q    S S S E  E  E  E     E  Q    S S E  Q    E   
----------------------------|-------------------------|
----------------------------|-------------------------|
--0-------0-0-0-0--0-----0--|--0-------0-0-0-------0--|
----------------------------|-------------------------|


          |-3-|                                          
  E  Q    S S S E  E  E  E     E  S S E  E  E  E  E  E   
----------------------------|---------------------------|
----------------------------|---------------------------|
--0-------0-0-0-0--0-----0--|---------------------------|
----------------------------|--0--0-0-0--0--0--0--0--0--|


  E  E  E  E  E  S S E  E     Q    E  S S E  E  Q     
---------------------------|-------------------------|
---------------------------|-------------------------|
---------------------------|-------------------------|
--1--0--0--0--0--0-0-0--0--|--3----3--3-3-3--1--1----|


  E  E  E  S S E  E  E  E     E  S S E  E  E  E  E  E   
---------------------------|---------------------------|
---------------------------|---------------------------|
---------------------------|---------------------------|
--1--0--0--0-0-0--0--0--0--|--0--0-0-0--0--0--0--0--0--|


  E  E  E  E  E  S S E  E     Q    E  S S E  E  Q     
---------------------------|-------------------------|
---------------------------|-------------------------|
---------------------------|-------------------------|
--1--0--0--0--0--0-0-0--0--|--3----3--3-3-3--1--1----|


  E  E  E  S S E  E  E  E     Q    E  S S E  S S E  S S  
---------------------------|----------------------------|
---------------------------|----------------------------|
---------------------------|----------------------------|
--1--0--0--0-0-0--0--0--0--|--5----5--5-5-5--5-5-5--5-5-|


  E  S S E  Q    Q    E     E  E  E  S S E  S S E  S S  
-------------------------|-----------------------------|
-------------------------|-----------------------------|
-------------------------|-----------------------------|
--5--5-5-5--6----3----3--|--3--5--5--5-5-5--5-5-5--5-5-|


  E  S S E  S S E  S S E  E     Q    E  S S E  S S E  S S  
-----------------------------|----------------------------|
-----------------------------|----------------------------|
-----------------------------|----------------------------|
--5--5-5-5--5-5-5--5-5-5--3--|--5----5--5-5-5--5-5-5--5-5-|


  E  S S E  Q    Q    E     E  E  E  S S E  S S E  S S  
-------------------------|-----------------------------|
-------------------------|-----------------------------|
-------------------------|-----------------------------|
--5--5-5-5--6----3----3--|--3--5--5--5-5-5--5-5-5--5-5-|


  E  S S E  S S E  S S E  E     Q    E  S S E  S S E  S S  
-----------------------------|----------------------------|
-----------------------------|----------------------------|
-----------------------------|----------------------------|
--5--5-5-5--5-5-5--5-5-5--3--|--5----5--5-5-5--5-5-5--5-5-|


  E  S S E  Q    Q    E     E  E  E  S S E  S S E  S S  
-------------------------|-----------------------------|
-------------------------|-----------------------------|
-------------------------|-----------------------------|
--5--5-5-5--6----3----3--|--3--5--5--5-5-5--5-5-5--5-5-|


  E  S S E  S S E  S S E  E     Q    E  S S E  S S E  S S  
-----------------------------|----------------------------|
-----------------------------|----------------------------|
-----------------------------|----------------------------|
--5--5-5-5--5-5-5--5-5-5--3--|--5----5--5-5-5--5-5-5--5-5-|


  E  S S E  Q    Q    E     E  E  E  S S E  S S E  S S  
-------------------------|-----------------------------|
-------------------------|-----------------------------|
-------------------------|-----------------------------|
--5--5-5-5--6----3----3--|--3--5--5--5-5-5--5-5-5--5-5-|


  E  S S E  S S E  S S E  E     Q    E  S S E  S S E  S S  
-----------------------------|----------------------------|
-----------------------------|----------------------------|
-----------------------------|----------------------------|
--5--5-5-5--5-5-5--5-5-5--3--|--3----3--3-3-3--3-3-3--3-3-|


  E  S S E  S S E  S S E  S S    E  S S E  S S E  S S E  S S  
------------------------------|------------------------------|
------------------------------|------------------------------|
------------------------------|------------------------------|
--3--3-3-3--3-3-3--3-3-3--3-3-|--3--3-3-3--3-3-3--3-3-3--3-3-|


  E  S S E  S S E  S S E  S S    Q    E  S S E  S S E  S S  
------------------------------|----------------------------|
------------------------------|----------------------------|
------------------------------|----------------------------|
--3--3-3-3--3-3-3--3-3-3--3-3-|--5----5--5-5-5--5-5-5--5-5-|


  E  S S E  Q    Q    E     E  E  E  S S E  S S E  S S  
-------------------------|-----------------------------|
-------------------------|-----------------------------|
-------------------------|-----------------------------|
--5--5-5-5--6----3----3--|--3--5--5--5-5-5--5-5-5--5-5-|


  E  S S E  S S E  S S E  E     Q    E  S S E  S S E  S S  
-----------------------------|----------------------------|
-----------------------------|----------------------------|
-----------------------------|----------------------------|
--5--5-5-5--5-5-5--5-5-5--3--|--3----3--3-3-3--3-3-3--3-3-|


  E  S S E  S S E  S S E  S S    E  S S E  S S E  S S E  S S  
------------------------------|------------------------------|
------------------------------|------------------------------|
------------------------------|------------------------------|
--3--3-3-3--3-3-3--3-3-3--3-3-|--3--3-3-3--3-3-3--3-3-3--3-3-|


  E  S S E  S S E  S S E  S S    Q    E  S S E  S S E  S S  
------------------------------|----------------------------|
------------------------------|----------------------------|
------------------------------|----------------------------|
--3--3-3-3--3-3-3--3-3-3--3-3-|--5----5--5-5-5--5-5-5--5-5-|


  E  S S E  Q    Q    E     E  E  E  S S E  S S E  S S  
-------------------------|-----------------------------|
-------------------------|-----------------------------|
-------------------------|-----------------------------|
--5--5-5-5--6----3----3--|--3--5--5--5-5-5--5-5-5--5-5-|


  E  S S E  S S E  S S E  E     Q    E  S S E  S S E  S S  
-----------------------------|----------------------------|
-----------------------------|----------------------------|
-----------------------------|----------------------------|
--5--5-5-5--5-5-5--5-5-5--3--|--5----5--5-5-5--5-5-5--5-5-|


  E  S S E  Q    Q    E     E  E  E  S S E  S S E  S S  
-------------------------|-----------------------------|
-------------------------|-----------------------------|
-------------------------|-----------------------------|
--5--5-5-5--6----3----3--|--3--5--5--5-5-5--5-5-5--5-5-|


  E  S S E  S S E  S S E  E     Q    E  S S E  S S E  S S  
-----------------------------|----------------------------|
-----------------------------|----------------------------|
-----------------------------|----------------------------|
--5--5-5-5--5-5-5--5-5-5--3--|--3----3--3-3-3--3-3-3--3-3-|


  E  S S E  S S E  S S E  S S    E  S S E  S S E  S S E  S S  
------------------------------|------------------------------|
------------------------------|------------------------------|
------------------------------|------------------------------|
--3--3-3-3--3-3-3--3-3-3--3-3-|--3--3-3-3--3-3-3--3-3-3--3-3-|


  E  S S E  S S E  S S E  S S    W                   W                 
------------------------------|-------------------|-------------------|
------------------------------|-------------------|-------------------|
------------------------------|-------------------|-------------------|
--3--3-3-3--3-3-3--3-3-3--3-3-|--5----------------|--L----------------|


  W                   W                   W                   W                 
-------------------|-------------------|-------------------|-------------------|
-------------------|-------------------|-------------------|-------------------|
-------------------|-------------------|-------------------|-------------------|
--L----------------|--L----------------|--L----------------|-------------------|


  W                   W                   W                   W                 
-------------------|-------------------|-------------------|-------------------|
-------------------|-------------------|-------------------|-------------------|
-------------------|-------------------|-------------------|-------------------|
-------------------|-------------------|-------------------|-------------------|


  W                   W                   W                   W                 
-------------------|-------------------|-------------------|-------------------|
-------------------|-------------------|-------------------|-------------------|
-------------------|-------------------|-------------------|-------------------|
-------------------|-------------------|-------------------|-------------------|


  W                   W                   W                   W                 
-------------------|-------------------|-------------------|-------------------|
-------------------|-------------------|-------------------|-------------------|
-------------------|-------------------|-------------------|-------------------|
-------------------|-------------------|-------------------|-------------------|


  W                   W                   W                   W                 
-------------------|-------------------|-------------------|-------------------|
-------------------|-------------------|-------------------|-------------------|
-------------------|-------------------|-------------------|-------------------|
-------------------|-------------------|-------------------|-------------------|


  W                   W                   W                   W                 
-------------------|-------------------|-------------------|-------------------|
-------------------|-------------------|-------------------|-------------------|
-------------------|-------------------|-------------------|-------------------|
-------------------|-------------------|-------------------|-------------------|


  W                   W                   W                   W                 
-------------------|-------------------|-------------------|-------------------|
-------------------|-------------------|-------------------|-------------------|
-------------------|-------------------|-------------------|-------------------|
-------------------|-------------------|-------------------|-------------------|


  W                   E  E  E  Q    Q    E     W                 
-------------------|------------------------|-------------------|
-------------------|--7---------------------|-------------------|
-------------------|-----8------------------|--0----------------|
-------------------|-----------8----3----5--|-------------------|


  W                   W                   E  E  E  Q    Q    E   
-------------------|-------------------|------------------------|
-------------------|-------------------|--7---------------------|
--L----------------|--L----------------|-----8------------------|
-------------------|-------------------|-----------8----3----5--|


  H        H           Q    Q    Q.     E     H        H         
--------------------|----------------------|--------------------|
--------------------|------------7------5--|--------------------|
--------------------|----------------------|--------------------|
--5--------5--------|--L----5--------------|--1--------1--------|


  Q    Q    Q    Q       H        H           Q    Q    Q.     E   
----------------------|--------------------|----------------------|
------------3---------|--------------------|------------7------5--|
-----------------3----|--------------------|----------------------|
--L----1--------------|--5--------5--------|--L----5--------------|


  H        H           Q    Q    E  E  Q       H        H         
--------------------|-----------------------|--------------------|
--------------------|---------------3-------|--------------------|
--------------------|------------3-----3----|--------------------|
--1--------1--------|--L----1---------------|--5--------5--------|


  Q    Q    Q.     E     H        H           Q    Q    E  E  Q     
----------------------|--------------------|-----------------------|
------------7------5--|--------------------|---------------3-------|
----------------------|--------------------|------------3-----3----|
--L----5--------------|--1--------1--------|--L----1---------------|


  H        H           Q    Q    Q.     E     H        H         
--------------------|----------------------|--------------------|
--------------------|------------7------5--|--------------------|
--------------------|----------------------|--------------------|
--5--------5--------|--L----5--------------|--1--------1--------|


  Q    Q    E  E  Q       H        H           Q    Q    Q.     E   
-----------------------|--------------------|----------------------|
---------------3-------|--------------------|------------7------5--|
------------3-----3----|--------------------|----------------------|
--L----1---------------|--5--------5--------|--L----5--------------|


  H        H           Q    Q    E  E  Q       Q    E  E  E  E  Q     
--------------------|-----------------------|------------------------|
--------------------|---------------3-------|------------------------|
--------------------|------------3-----3----|------------------------|
--1--------1--------|--L----1---------------|--5----5--5--5--5--5----|


  E  E  Q    E  E  Q       Q    E  E  E  E  Q       E  E  Q    E  E  E  E   
------------------------|------------------------|-------------------------|
------------------------|------------------------|----------------------3--|
------------------------|------------------------|-------------------------|
--5--5--5----5--5--5----|--1----1--1--1--1--1----|--1--1--1----1--1--1-----|


  Q    E  E  E  E  Q       E  E  Q    E  E  Q       Q    E  E  E  E  Q     
------------------------|------------------------|------------------------|
------------------------|------------------------|------------------------|
------------------------|------------------------|------------------------|
--5----5--5--5--5--5----|--5--5--5----5--5--5----|--1----1--1--1--1--1----|


  E  E  Q    E  E  E  E     Q    E  E  E  E  Q       E  E  Q    E  E  Q     
-------------------------|------------------------|------------------------|
----------------------3--|------------------------|------------------------|
-------------------------|------------------------|------------------------|
--1--1--1----1--1--1-----|--5----5--5--5--5--5----|--5--5--5----5--5--5----|


  Q    E  E  E  E  Q       E  E  Q    E  E  E  E     Q    E  E  E  E  Q     
------------------------|-------------------------|------------------------|
------------------------|----------------------3--|------------------------|
------------------------|-------------------------|------------------------|
--1----1--1--1--1--1----|--1--1--1----1--1--1-----|--5----5--5--5--5--5----|


  E  E  Q    E  E  Q       Q    E  E  E  E  Q       E  E  Q    E  E  E  E   
------------------------|------------------------|-------------------------|
------------------------|------------------------|----------------------3--|
------------------------|------------------------|-------------------------|
--5--5--5----5--5--5----|--1----1--1--1--1--1----|--1--1--1----1--1--1-----|


  W                   W                   W                   W                 
-------------------|-------------------|-------------------|-------------------|
-------------------|-------------------|-------------------|-------------------|
-------------------|-------------------|-------------------|-------------------|
-------------------|-------------------|-------------------|-------------------|


  W                   W                   W                   W                 
-------------------|-------------------|-------------------|-------------------|
-------------------|-------------------|-------------------|-------------------|
-------------------|-------------------|-------------------|-------------------|
-------------------|-------------------|-------------------|-------------------|


  W                   W                   W                   W                 
-------------------|-------------------|-------------------|-------------------|
-------------------|-------------------|-------------------|-------------------|
-------------------|-------------------|-------------------|-------------------|
-------------------|-------------------|-------------------|-------------------|


  W                   W                   W                   W                 
-------------------|-------------------|-------------------|-------------------|
-------------------|-------------------|-------------------|-------------------|
-------------------|-------------------|-------------------|-------------------|
-------------------|-------------------|-------------------|-------------------|


  E  S S E  E  S S E  E  S S    E  E  S S E  E  E  E  E   
-----------------------------|---------------------------|
-----------------------------|---------------4--6--7--6--|
--4--4-4-4--4--4-4-4--4--4-4-|--4--4--4-4-4--------------|
-----------------------------|---------------------------|


  E  S S E  E  S S E  E  S S    E  E  S S E  E  E  S S E   
-----------------------------|----------------------------|
-----------------------------|----------------------------|
--4--4-4-4--4--4-4-4--4--4-4-|--4--4--4-4-4--4--4--3-3-2--|
-----------------------------|----------------------------|


  E  S S E  E  S S E  E  S S    E  E  S S E  Q    Q      
-----------------------------|--------------------------|
-----------------------------|--------------------------|
-----------------------------|--------------------------|
--5--5-5-5--5--5-5-5--5--5-5-|--5--5--5-5-5--5----5S----|


  E  S S E  Q    E  E  S S    E  E  E  E  Q    Q     
---------------------------|------------------------|
---------------------------|------------------------|
---------------------------|------------------------|
--2--2-2-2--2----2--4--4-4-|--4--4--4--4--4----4----|


  E  S S E  E  S S E  E  S S    E  E  S S E  E  E  E  E   
-----------------------------|---------------------------|
-----------------------------|---------------4--6--7--6--|
--4--4-4-4--4--4-4-4--4--4-4-|--4--4--4-4-4--------------|
-----------------------------|---------------------------|


  E  S S E  E  S S E  E  S S    E  E  S S E  E  E  S S E   
-----------------------------|----------------------------|
-----------------------------|----------------------------|
--4--4-4-4--4--4-4-4--4--4-4-|--4--4--4-4-4--4--4--3-3-2--|
-----------------------------|----------------------------|


  E  S S E  E  S S E  E  S S    E  E  S S E  Q    Q      
-----------------------------|--------------------------|
-----------------------------|--------------------------|
-----------------------------|--------------------------|
--5--5-5-5--5--5-5-5--5--5-5-|--5--5--5-5-5--5----5S----|


  E  S S E  Q    E  E  S S    E  E  E  E  Q    Q       W                 
---------------------------|------------------------|-------------------|
---------------------------|------------------------|-------------------|
---------------------------|------------------------|-------------------|
--2--2-2-2--2----2--4--4-4-|--4--4--4--4--4----4----|--5----------------|


  H.           E  E     W                   H.           E  E   
---------------------|-------------------|---------------------|
---------------------|-------------------|---------------------|
---------------------|-------------------|---------------------|
--L------------5--3--|--1----------------|--L------------1--3--|


  W                   H.           E  E     W                 
-------------------|---------------------|-------------------|
-------------------|---------------------|-------------------|
-------------------|---------------------|-------------------|
--5----------------|--L------------5--3--|--1----------------|


                                                          |-3-|              
  H.           E  E     E  Q    S S E  Q    E     E  Q    S S S E  E  E  E   
---------------------|-------------------------|----------------------------|
---------------------|-------------------------|----------------------------|
---------------------|--0-------0-0-0-------0--|--0-------0-0-0-0--0-----0--|
--L------------1--3--|-------------------------|----------------------------|


                                    |-3-|              
  E  Q    S S E  Q    E     E  Q    S S S E  E  E  E   
-------------------------|----------------------------|
-------------------------|----------------------------|
--0-------0-0-0-------0--|--0-------0-0-0-0--0-----0--|
-------------------------|----------------------------|


                                    |-3-|              
  E  Q    S S E  Q    E     E  Q    S S S E  E  E  E   
-------------------------|----------------------------|
-------------------------|----------------------------|
--0-------0-0-0-------0--|--0-------0-0-0-0--0-----0--|
-------------------------|----------------------------|


                                    |-3-|              
  E  Q    S S E  Q    E     E  Q    S S S E  E  E  E   
-------------------------|----------------------------|
-------------------------|----------------------------|
--0-------0-0-0-------0--|--0-------0-0-0-0--0-----0--|
-------------------------|----------------------------|


  E  S S E  E  E  E  E  E     E  E  E  E  E  S S E  E   
---------------------------|---------------------------|
---------------------------|---------------------------|
---------------------------|---------------------------|
--0--0-0-0--0--0--0--0--0--|--1--0--0--0--0--0-0-0--0--|


  Q    E  S S E  E  Q       E  E  E  S S E  E  E  E   
-------------------------|---------------------------|
-------------------------|---------------------------|
-------------------------|---------------------------|
--3----3--3-3-3--1--1----|--1--0--0--0-0-0--0--0--0--|


  E  S S E  E  E  E  E  E     E  E  E  E  E  S S E  E   
---------------------------|---------------------------|
---------------------------|---------------------------|
---------------------------|---------------------------|
--0--0-0-0--0--0--0--0--0--|--1--0--0--0--0--0-0-0--0--|


  Q    E  S S E  E  Q       E  E  E  S S E  E  E  E     E  Q    S S E  Q    E   
-------------------------|---------------------------|-------------------------|
-------------------------|---------------------------|-------------------------|
-------------------------|---------------------------|--0-------0-0-0-------0--|
--3----3--3-3-3--1--1----|--1--0--0--0-0-0--0--0--0--|-------------------------|


          |-3-|                                        
  E  Q    S S S E  E  E  E     E  Q    S S E  Q    E   
----------------------------|-------------------------|
----------------------------|-------------------------|
--0-------0-0-0-0--0-----0--|--0-------0-0-0-------0--|
----------------------------|-------------------------|


          |-3-|                                        
  E  Q    S S S E  E  E  E     E  Q    S S E  Q    E   
----------------------------|-------------------------|
----------------------------|-------------------------|
--0-------0-0-0-0--0-----0--|--0-------0-0-0-------0--|
----------------------------|-------------------------|


          |-3-|                                        
  E  Q    S S S E  E  E  E     E  Q    S S E  Q    E   
----------------------------|-------------------------|
----------------------------|-------------------------|
--0-------0-0-0-0--0-----0--|--0-------0-0-0-------0--|
----------------------------|-------------------------|


          |-3-|                                          
  E  Q    S S S E  E  E  E     E  S S E  E  E  E  E  E   
----------------------------|---------------------------|
----------------------------|---------------------------|
--0-------0-0-0-0--0-----0--|---------------------------|
----------------------------|--0--0-0-0--0--0--0--0--0--|


  E  E  E  E  E  S S E  E     Q    E  S S E  E  Q     
---------------------------|-------------------------|
---------------------------|-------------------------|
---------------------------|-------------------------|
--1--0--0--0--0--0-0-0--0--|--3----3--3-3-3--1--1----|


  E  E  E  S S E  E  E  E     E  S S E  E  E  E  E  E   
---------------------------|---------------------------|
---------------------------|---------------------------|
---------------------------|---------------------------|
--1--0--0--0-0-0--0--0--0--|--0--0-0-0--0--0--0--0--0--|


  E  E  E  E  E  S S E  E     Q    E  S S E  E  Q     
---------------------------|-------------------------|
---------------------------|-------------------------|
---------------------------|-------------------------|
--1--0--0--0--0--0-0-0--0--|--3----3--3-3-3--1--1----|


  E  E  E  S S E  E  E  E     Q    E  S S E  S S E  S S  
---------------------------|----------------------------|
---------------------------|----------------------------|
---------------------------|----------------------------|
--1--0--0--0-0-0--0--0--0--|--5----5--5-5-5--5-5-5--5-5-|


  E  S S E  Q    Q    E     E  E  E  S S E  S S E  S S  
-------------------------|-----------------------------|
-------------------------|-----------------------------|
-------------------------|-----------------------------|
--5--5-5-5--6----3----3--|--3--5--5--5-5-5--5-5-5--5-5-|


  E  S S E  S S E  S S E  E     Q    E  S S E  S S E  S S  
-----------------------------|----------------------------|
-----------------------------|----------------------------|
-----------------------------|----------------------------|
--5--5-5-5--5-5-5--5-5-5--3--|--5----5--5-5-5--5-5-5--5-5-|


  E  S S E  Q    Q    E     E  E  E  S S E  S S E  S S  
-------------------------|-----------------------------|
-------------------------|-----------------------------|
-------------------------|-----------------------------|
--5--5-5-5--6----3----3--|--3--5--5--5-5-5--5-5-5--5-5-|


  E  S S E  S S E  S S E  E     Q    E  S S E  S S E  S S  
-----------------------------|----------------------------|
-----------------------------|----------------------------|
-----------------------------|----------------------------|
--5--5-5-5--5-5-5--5-5-5--3--|--3----3--3-3-3--3-3-3--3-3-|


  E  S S E  S S E  S S E  S S    E  S S E  S S E  S S E  S S  
------------------------------|------------------------------|
------------------------------|------------------------------|
------------------------------|------------------------------|
--3--3-3-3--3-3-3--3-3-3--3-3-|--3--3-3-3--3-3-3--3-3-3--3-3-|


  E  S S E  S S E  S S E  S S    Q    E  S S E  S S E  S S  
------------------------------|----------------------------|
------------------------------|----------------------------|
------------------------------|----------------------------|
--3--3-3-3--3-3-3--3-3-3--3-3-|--5----5--5-5-5--5-5-5--5-5-|


  E  S S E  Q    Q    E     E  E  E  S S E  S S E  S S  
-------------------------|-----------------------------|
-------------------------|-----------------------------|
-------------------------|-----------------------------|
--5--5-5-5--6----3----3--|--3--5--5--5-5-5--5-5-5--5-5-|


  E  S S E  S S E  S S E  E     Q    E  S S E  S S E  S S  
-----------------------------|----------------------------|
-----------------------------|----------------------------|
-----------------------------|----------------------------|
--5--5-5-5--5-5-5--5-5-5--3--|--3----3--3-3-3--3-3-3--3-3-|


  E  S S E  S S E  S S E  S S    E  S S E  S S E  S S E  S S  
------------------------------|------------------------------|
------------------------------|------------------------------|
------------------------------|------------------------------|
--3--3-3-3--3-3-3--3-3-3--3-3-|--3--3-3-3--3-3-3--3-3-3--3-3-|


  E  S S E  S S E  S S E  S S    Q    E  S S E  S S E  S S  
------------------------------|----------------------------|
------------------------------|----------------------------|
------------------------------|----------------------------|
--3--3-3-3--3-3-3--3-3-3--3-3-|--5----5--5-5-5--5-5-5--5-5-|


  E  S S E  Q    Q    E     E  E  E  S S E  S S E  S S  
-------------------------|-----------------------------|
-------------------------|-----------------------------|
-------------------------|-----------------------------|
--5--5-5-5--6----3----3--|--3--5--5--5-5-5--5-5-5--5-5-|


  E  S S E  S S E  S S E  E     Q    E  S S E  S S E  S S  
-----------------------------|----------------------------|
-----------------------------|----------------------------|
-----------------------------|----------------------------|
--5--5-5-5--5-5-5--5-5-5--3--|--5----5--5-5-5--5-5-5--5-5-|


  E  S S E  Q    Q    E     E  E  E  S S E  S S E  S S  
-------------------------|-----------------------------|
-------------------------|-----------------------------|
-------------------------|-----------------------------|
--5--5-5-5--6----3----3--|--3--5--5--5-5-5--5-5-5--5-5-|


  E  S S E  S S E  S S E  E     Q    E  S S E  S S E  S S  
-----------------------------|----------------------------|
-----------------------------|----------------------------|
-----------------------------|----------------------------|
--5--5-5-5--5-5-5--5-5-5--3--|--3----3--3-3-3--3-3-3--3-3-|


  E  S S E  S S E  S S E  S S    E  S S E  S S E  S S E  S S  
------------------------------|------------------------------|
------------------------------|------------------------------|
------------------------------|------------------------------|
--3--3-3-3--3-3-3--3-3-3--3-3-|--3--3-3-3--3-3-3--3-3-3--3-3-|


  E  S S E  S S E  S S E  S S    W                   W                 
------------------------------|-------------------|-------------------|
------------------------------|-------------------|-------------------|
------------------------------|-------------------|-------------------|
--3--3-3-3--3-3-3--3-3-3--3-3-|--5----------------|--L----------------|


  W                   W                   E  E   E  E   E  E   E  E   
-------------------|-------------------|-------------------7---------|
-------------------|-------------------|--7--9--10--7--10-----10--9--|
-------------------|-------------------|-----------------------------|
--L----------------|--L----------------|-----------------------------|


   E  E  E  E  Q    Q       E  E   E  E   E  E   E  E   
-------------------------|-------------------7---------|
--10--7--9--6--7----7----|--7--9--10--7--10-----10--9--|
-------------------------|-----------------------------|
-------------------------|-----------------------------|


   E  E  E  E  Q    Q       E  E  E  E  H           E  E  E  E  H         
-------------------------|-----------------------|-----------------------|
--10--7--9--6--7----7----|--2--3--5--0--2--------|-----------------------|
-------------------------|-----------------------|--3--2-----2--0--------|
-------------------------|-----------------------|--------3--------------|


  E  E  E  E  E  Q.        E  E  E  E  E  Q.        W                  
--------------3--2------|--L---------------------|-------------------||
-----2--3--5------------|------------------------|-------------------||
--L---------------------|-----3--2-----2--0------|--L----------------||
------------------------|-----------3------------|-------------------||




Duration Legend
---------------
W - whole
H - half
Q - quarter
E - 8th
S - 16th
T - 32nd
X - 64th
. - note dotted
|-n-|  - n-tuplets


Tablature Legend
----------------
L - tied note
x - dead note
g - grace note
(n) - ghost note
> - accentuded note
NH - natural harmonic
AH - artificial harmonic
TH - tapped harmonic
SH - semi harmonic
PH - pitch harmonic
h - hammer on
p - pull off
b - bend
br - bendRelease
pb - preBend
pbr - preBendRelease
brb - bendReleaseBend
\n/ - tremolo bar dip
\n - tremolo bar dive
-/n - tremolo bar Release up
/n\ - tremolo bar inverted dip
/n - tremolo bar return
-\n - tremolo bar Release down
S - shift slide
s - legato slide
/ -  slide into from below or out of upwards
\ -  slide into from above or out of downwards
~ - vibrato
W - wide vibrato
tr - trill
TP - tremolo picking
T - tapping
S - slap
P - pop
< - fade in
^ - brush up
v - brush down

            
            
Suggest correction
Creating personal tab
Creating personal tab
You can edit any tab online and save it as your Personal.

You can edit, replace or remove any tab part or add personal notes – all changes will be seen only by you.

Personal tabs can be accessed anytime from any device, even offline.
Learn more »
Give kudos to tab author, rate the tab!
1 2 3 4 5
comments
print report bad tab
guest
You may want to rate the tab now too:
select rating
Wanna post a correction for this tab? Suggest correction