Oops, an error
Loading. Please wait.

Travel In Stygian bass

version 1
version 1

Whole song

Interactive

624 views 1 this week
no commentswrite comment
1 2 3 4 5
3 more votes to show rating
add to favorites
×
Save as Personal and add changes to this tab that will be seen only by you. Learn more ›
×
You can save this tab as Personal to edit and correct it or add notes. All changes will be seen only by you. Learn more »
launch autoscroll
font size
0
reset
guitar tuner
edit
Autoscroll
slow
fast
+/-
esc
set tempo
stop
                              Travel In Stygian                                 

Transcribed by an unregistered user

                                                                      Iced Earth
Bass



         |-3-|    |-3-|    |-3-|    |-3-|  
      E  S S S E  S S S E  S S S E  S S S  
F#||--------------------------------------|
C#||--------------------------------------|
G#||-----------4--4-4-4-2--2-2-2-5--5-5-5-|
D#||--2--2-2-2----------------------------|


     |-3-|    |-3-|    |-3-| |--3--|        |-3-|    |-3-|    |-3-|    |-3-|  
  E  S S S E  S S S E  S S S E  E  E     E  S S S E  S S S E  S S S E  S S S  
--------------------------------------|--------------------------------------|
--------------------------------------|--------------------------------------|
-----------4--4-4-4-2--2-2-2-4--3-----|-----------4--4-4-4-2--2-2-2-5--5-5-5-|
--2--2-2-2-------------------------2--|--2--2-2-2----------------------------|


     |-3-|    |-3-|    |-3-| |--3--|        |-3-|    |-3-|    |-3-|    |-3-|  
  E  S S S E  S S S E  S S S E  E  E     E  S S S E  S S S E  S S S E  S S S  
--------------------------------------|--------------------------------------|
--------------------------------------|--------------------------------------|
-----------4--4-4-4-2--2-2-2-4--3-----|-----------4--4-4-4-2--2-2-2-5--5-5-5-|
--2--2-2-2-------------------------2--|--2--2-2-2----------------------------|


     |-3-|    |-3-|    |-3-| |--3--|        |-3-|    |-3-|    |-3-|    |-3-|  
  E  S S S E  S S S E  S S S E  E  E     E  S S S E  S S S E  S S S E  S S S  
--------------------------------------|--------------------------------------|
--------------------------------------|--------------------------------------|
-----------4--4-4-4-2--2-2-2-4--3-----|-----------4--4-4-4-2--2-2-2-5--5-5-5-|
--2--2-2-2-------------------------2--|--2--2-2-2----------------------------|


     |-3-|    |-3-|    |-3-| |--3--|        |-3-|    |-3-|    |-3-|    |-3-|  
  E  S S S E  S S S E  S S S E  E  E     E  S S S E  S S S E  S S S E  S S S  
--------------------------------------|--------------------------------------|
--------------------------------------|--------------------------------------|
-----------4--4-4-4-2--2-2-2-4--3-----|-----------4--4-4-4-2--2-2-2-5--5-5-5-|
--2--2-2-2-------------------------2--|--2--2-2-2----------------------------|


     |-3-|    |-3-|    |-3-| |--3--|        |-3-|    |-3-|    |-3-|    |-3-|  
  E  S S S E  S S S E  S S S E  E  E     E  S S S E  S S S E  S S S E  S S S  
--------------------------------------|--------------------------------------|
--------------------------------------|--------------------------------------|
-----------4--4-4-4-2--2-2-2-4--3-----|-----------4--4-4-4-2--2-2-2-5--5-5-5-|
--2--2-2-2-------------------------2--|--2--2-2-2----------------------------|


     |-3-|    |-3-|    |-3-| |--3--|                         
  E  S S S E  S S S E  S S S E  E  E     H.           E  E   
--------------------------------------|---------------------|
--------------------------------------|---------------------|
-----------4--4-4-4-2--2-2-2-4--3-----|---------------------|
--2--2-2-2-------------------------2--|--2------------2--0--|


  H.           E  E     H.           E  E     S S S S Q    S S S S Q     
---------------------|---------------------|----------------------------|
---------------------|---------------------|----------------------------|
---------------------|---------------------|----------------------------|
--3------------3--0--|--2------------2--0--|--5-5-5-5-5----3-3-3-3-3----|


  H.           E  E     H.           E  E     H.           E  E   
---------------------|---------------------|---------------------|
---------------------|---------------------|---------------------|
---------------------|---------------------|---------------------|
--2------------2--0--|--3------------3--0--|--2------------2--0--|


  S S S S Q    S S S S Q       E  E  E  E  E  E  E  E   
----------------------------|--------------------------|
----------------------------|--------------------------|
----------------------------|--------------------------|
--5-5-5-5-5----3-3-3-3-3----|--2-----------------------|


  E  E  E  E  E  E  E  E     E  E  E  E  E  E  E  E   
--------------------------|--------------------------|
--------------------------|--------------------------|
--------------4--5--4-----|--------------------------|
-----------------------5--|--2-----------------------|


  E  E  E  E  E  E  E  E     E  E  E  E  E  E  E  E   
--------------------------|--------------------------|
--------------------------|--------------------------|
--------------4--5--4-----|--------------------------|
-----------------------5--|--3--3--------------3--3--|


  E  E  E  E  E  E  E  E     E  E  E  E  E  E  E  E   
--------------------------|--------------------------|
--------------------------|--------------------------|
--------------5--6--5-----|--------------------------|
-----------------------6--|--3--3--------------3--3--|


  E  E  E  E  E  E  E  E     E  E  E  S S E  E  E  E   
--------------------------|---------------------------|
--------------------------|---------------------------|
--------------5--6--5-----|--------4---------2-----5--|
-----------------------6--|--2--2-----2-2-2-----2-----|


  E  E  S S E  E  E  E  E     E  E  E  S S E  E  E  E   
---------------------------|---------------------------|
---------------------------|---------------------------|
-----4---------4--5--4-----|--------4---------2-----5--|
--2-----2-2-2-----------5--|--2--2-----2-2-2-----2-----|


  E  E  S S E  E  E  E  E     E  E  E  S S E  E  E  E   
---------------------------|---------------------------|
---------------------------|---------------------------|
-----4---------4--5--4-----|--------5---------3-----6--|
--2-----2-2-2-----------5--|--3--3-----3-3-3-----3-----|


  E  E  S S E  E  E  E  E     E  E  E  S S E  E  E  E   
---------------------------|---------------------------|
---------------------------|---------------------------|
-----5---------5--6--5-----|--------5---------3-----6--|
--3-----3-3-3-----------6--|--3--3-----3-3-3-----3-----|


  E  E  S S E  E  E  E  E     E  E  E  S S E  E  E  E   
---------------------------|---------------------------|
---------------------------|---------------------------|
-----5---------5--6--5-----|--------4---------2-----5--|
--3-----3-3-3-----------6--|--2--2-----2-2-2-----2-----|


  E  E  S S E  E  E  E  E     E  E  E  S S E  E  E  E   
---------------------------|---------------------------|
---------------------------|---------------------------|
-----4---------4--5--4-----|--------4---------2-----5--|
--2-----2-2-2-----------5--|--2--2-----2-2-2-----2-----|


  E  E  S S E  E  E  E  E     E  E  E  S S E  E  E  E   
---------------------------|---------------------------|
---------------------------|---------------------------|
-----4---------4--5--4-----|--------5---------3-----6--|
--2-----2-2-2-----------5--|--3--3-----3-3-3-----3-----|


  E  E  S S E  E  E  E  E     E  E  E  S S E  E  E  E   
---------------------------|---------------------------|
---------------------------|---------------------------|
-----5---------5--6--5-----|--------5---------3-----6--|
--3-----3-3-3-----------6--|--3--3-----3-3-3-----3-----|


  E  E  S S E  E  E  E  E     E  E  E  S S E  E  E  E   
---------------------------|---------------------------|
---------------------------|---------------------------|
-----5---------5--6--5-----|---------------------------|
--3-----3-3-3-----------6--|--2--2--2--2-2-2--2--2--2--|


  E  E  S S E  E  E  E  E     E  E  E  S S E  E  E  E   
---------------------------|---------------------------|
---------------------------|---------------------------|
------------------------5--|---------------------------|
--2--2--2-2-2--2--3--2-----|--2--2--2--2-2-2--2--2--2--|


  E  E  S S E  E  E  E  E     E  E  E  S S E  E  E  E   
---------------------------|---------------------------|
---------------------------|---------------------------|
------------------------5--|---------------------------|
--2--2--2-2-2--2--3--2-----|--3--3--3--3-3-3--3--3--3--|


  E  E  S S E  E  E  E  E     E  E  E  S S E  E  E  E   
---------------------------|---------------------------|
---------------------------|---------------------------|
------------------------6--|---------------------------|
--3--3--3-3-3--3--4--3-----|--3--3--3--3-3-3--3--3--3--|


  E  E  S S E  E  E  E  E       E  E  E  E  H         
---------------------------||------------------------|
---------------------------||*-----------------------|
------------------------6--||*-----------------------|
--3--3--3-3-3--3--4--3-----||---2--2--2--2--2--------|


  S S S S Q    S S S S Q       E  E  E  E  H         
----------------------------|-----------------------|
----------------------------|-----------------------|
----------------------------|-----------------------|
--5-5-5-5-5----3-3-3-3-3----|--2--2--2--2--2--------|


  S S S S Q    S S S S Q          E  E  E  S S E  E  E  E   
-----------------------------||----------------------------|
----------------------------*||*---------------------------|
----------------------------*||*--------4---------2-----5--|
--5-5-5-5-5----3-3-3-3-3-----||---2--2-----2-2-2-----2-----|


  E  E  S S E  E  E  E  E     E  E  E  S S E  E  E  E   
---------------------------|---------------------------|
---------------------------|---------------------------|
-----4---------4--5--4-----|--------4---------2-----5--|
--2-----2-2-2-----------5--|--2--2-----2-2-2-----2-----|


  E  E  S S E  E  E  E  E     E  E  E  S S E  E  E  E   
---------------------------|---------------------------|
---------------------------|---------------------------|
-----4---------4--5--4-----|--------5---------3-----6--|
--2-----2-2-2-----------5--|--3--3-----3-3-3-----3-----|


  E  E  S S E  E  E  E  E     E  E  E  S S E  E  E  E   
---------------------------|---------------------------|
---------------------------|---------------------------|
-----5---------5--6--5-----|--------5---------3-----6--|
--3-----3-3-3-----------6--|--3--3-----3-3-3-----3-----|


  E  E  S S E  E  E  E  E        E  E  E  E  H         
----------------------------||------------------------|
---------------------------*||*-----------------------|
-----5---------5--6--5-----*||*-----------------------|
--3-----3-3-3-----------6---||---2--2--2--2--2--------|


  S S S S Q    S S S S Q       E  E  E  E  H         
----------------------------|-----------------------|
----------------------------|-----------------------|
----------------------------|-----------------------|
--5-5-5-5-5----3-3-3-3-3----|--2--2--2--2--2--------|


  S S S S Q    S S S S Q          E   E  E  S S E  S S E  S S  
-----------------------------||-------------------------------|
----------------------------*||*------------------------------|
----------------------------*||*------------------------------|
--5-5-5-5-5----3-3-3-3-3-----||---0h--2--2--2-2-2--2-2-2--2-2-|


  E  S S E  S S E  S S E  E     E   E  E  S S E  S S E  S S  
-----------------------------|------------------------------|
-----------------------------|------------------------------|
-----------------------------|------------------------------|
--2--2-2-2--2-2-2--2-2-2--2--|--0h--2--2--2-2-2--2-2-2--2-2-|


  E  E  E  Q    Q    E   5x  E   E  E  S S E  S S E  S S  
-------------------------||------------------------------|
------------------------*||------------------------------|
------------------------*||------------------------------|
--0--2--3--5----3----2---||--0h--2--2--2-2-2--2-2-2--2-2-|


  E  S S E  S S E  S S E  E     E   E  E  S S E  S S E  S S  
-----------------------------|------------------------------|
-----------------------------|------------------------------|
-----------------------------|------------------------------|
--2--2-2-2--2-2-2--2-2-2--2--|--0h--2--2--2-2-2--2-2-2--2-2-|


  E  E  E  Q    Q    E     S S S S Q    E  Q    E     S S S S Q    E  Q    E   
------------------------|--------------------------|--------------------------|
------------------------|--------------------------|--------------------------|
------------------------|--------------------------|--------------------------|
--0--2--3--5----3----2--|--2-2-2-2-2----2--2----2--|--0-0-0-0-0----0--0----0--|


  S S S S Q    E  Q    E     S S S S Q    E  Q    E   
--------------------------|--------------------------|
--------------------------|--------------------------|
--------------------------|--------------------------|
--3-3-3-3-3----3--3----3--|--2-2-2-2-2----2--2----2--|


  E   E  E  S S E  S S E  S S    E  S S E  S S E  S S E  E   
------------------------------|-----------------------------|
------------------------------|-----------------------------|
------------------------------|-----------------------------|
--0h--2--2--2-2-2--2-2-2--2-2-|--2--2-2-2--2-2-2--2-2-2--2--|


  E   E  E  S S E  S S E  S S    E  S S E  S S E  S S E  E   
------------------------------|-----------------------------|
------------------------------|-----------------------------|
------------------------------|-----------------------------|
--0h--2--2--2-2-2--2-2-2--2-2-|--2--2-2-2--2-2-2--2-2-2--2--|


  S S S S Q    E  Q    E     S S S S Q    E  Q    E   
--------------------------|--------------------------|
--------------------------|--------------------------|
--------------------------|--------------------------|
--2-2-2-2-2----2--2----2--|--0-0-0-0-0----0--0----0--|


  S S S S Q    E  Q    E     S S S S Q    E  Q    E   
--------------------------|--------------------------|
--------------------------|--------------------------|
--------------------------|--------------------------|
--3-3-3-3-3----3--3----3--|--2-2-2-2-2----2--2----2--|


    E   E  E  S S E  S S E  S S    Q    Q    Q    Q     
|-------------------------------|--4-------------------|
|*--5p--4--4--4-4-4--4-4-4--4-4-|-------7----5----4----|
|*------------------------------|----------------------|
|-------------------------------|----------------------|


  E   E  E  S S E  S S E  S S    Q    Q    Q    Q     
------------------------------|--4-------------------|
--5p--4--4--4-4-4--4-4-4--4-4-|-------7----5----4----|
------------------------------|----------------------|
------------------------------|----------------------|


  S S S S Q     S  S  S  S  Q       S S S S Q     S  S  S  S  Q       
---------------------------------|----------------------------------||
---------------------------------|---------------------------------*||
--7-7-7-7-7----10-10-10-10-10----|--5-5-5-5-5----10-10-10-10-10----*||
---------------------------------|----------------------------------||


                  NH        NH                                  NH    
  H        Q      Q         W                   H        Q      Q     
-----------------------|--<>7----------------|-----------------------|
----------------<>7----|---------------------|----------------<>7----|
-----------------------|---------------------|--3--------L-----------|
--0--------L-----------|---------------------|-----------------------|


    NH                                  NH        NH                
    W                   H        Q      Q         W                 
--<>7----------------|-----------------------|--<>7----------------|
---------------------|----------------<>7----|---------------------|
---------------------|-----------------------|---------------------|
---------------------|--0--------L-----------|---------------------|


                  NH        NH                                    
  H        Q      Q         W                   W                 
-----------------------|--<>7----------------|-------------------|
----------------<>7----|---------------------|-------------------|
--3--------L-----------|---------------------|--2----------------|
-----------------------|---------------------|-------------------|


  H        Q    Q         W                   W                 
---------------------||--------------------|-------------------|
---------------------||*-------------------|-------------------|
--0--------3---------||*-------------------|-------------------|
----------------3----||---0----------------|--L----------------|


  W                   W                   W                   W                 
-------------------|-------------------|-------------------|-------------------|
-------------------|-------------------|-------------------|-------------------|
--3----------------|--L----------------|-------------------|-------------------|
-------------------|-------------------|--0----------------|--L----------------|


  W                   W                   W                 
-------------------|-------------------|-------------------|
-------------------|-------------------|-------------------|
--3----------------|--L----------------|--2----------------|
-------------------|-------------------|-------------------|


  H        Q    Q         E  E  E  E  E  E  E  E     E  E  E  E  E  E  E  E   
----------------------||--------------------------|--------------------------|
---------------------*||--------------------------|--------------------------|
--0--------3---------*||--2--2--2--2--2--2--2--2--|--0--0--0--0--3--3--------|
----------------3-----||--------------------------|--------------------3--3--|


    S S E  E  E  Q    S S S S    E   E  E  Q    Q    E   
|-----------------------------|-------------------------|
|*----------------------------|-------------------------|
|*---------------7------------|------------7----7----7--|
|---0-0-0--0--0-------0-0-0-0-|--7S--8--7---------------|


  S S E  E  E  Q    S S S S    E   E  E  Q    Q    E   
----------------------------|-------------------------|
----------------------------|-------------------------|
---------------7------------|------------7----5----5--|
--0-0-0--0--0-------0-0-0-0-|--7S--8--7---------------|


  S S E  E  E  Q    S S S S    E   E  E  Q    Q    E   
----------------------------|-------------------------|
----------------------------|-------------------------|
---------------7------------|------------7----7----7--|
--0-0-0--0--0-------0-0-0-0-|--7S--8--7---------------|


  S S S S E  S S S S E  S S E     S S S S E  S S S S E  S S E   3x
-------------------------------|--------------------------------||
-------------------------------|-------------------------------*||
--5-5-5-5-5--5-5-5-5-5--5-5-5--|--3-3-3-3-3--3-3-3-3-3--3-3-3--*||
-------------------------------|--------------------------------||


   S S E  E  E  Q.      E     E  E  E  Q     Q.        S S E  E  E  Q.     E   
---------------------------|------------------------|-------------------------|
*----------------------10--|--9--7--9--7------------|----------------------7--|
*--7-7-7--7--7--7----------|----------------10------|--5-5-5--5--5--5---------|
---------------------------|------------------------|-------------------------|


  E  E  E  E  E  E  Q          S S E  E  E  Q.      E   
--------------------------||---------------------------|
--5--4--5--7--5--4--5----*||*----------------------10--|
-------------------------*||*--7-7-7--7--7--7----------|
--------------------------||---------------------------|


  E  E  E  Q     Q.        S S E  E  E  Q.     E     E  E  E  E  E  E  Q       
------------------------|-------------------------|--------------------------||
--9--7--9--7------------|----------------------7--|--5--4--5--7--5--4--5----*||
----------------10------|--5-5-5--5--5--5---------|-------------------------*||
------------------------|-------------------------|--------------------------||


  W                   W                   W                   W                 
-------------------|-------------------|-------------------|-------------------|
-------------------|-------------------|-------------------|-------------------|
-------------------|-------------------|-------------------|-------------------|
--0----------------|-------------------|-------------------|-------------------|


  W                   W                   W                   W                 
-------------------|-------------------|-------------------|-------------------|
-------------------|-------------------|-------------------|-------------------|
-------------------|-------------------|--3----------------|--5----------------|
--0----------------|--0----------------|-------------------|-------------------|


  S S S S E  S S S S E  S S E     S S S S E  S S S S E  S S E   
-------------------------------|-------------------------------|
-------------------------------|-------------------------------|
--7-7-7-7-7--7-7-7-7-7--7-7-7--|--7-7-7-7-7--7-7-7-7-7--7-7-7--|
-------------------------------|-------------------------------|


  S S S S E  S S S S E  S S E     S S S S E  S S S S E  S S E   
-------------------------------|-------------------------------|
-------------------------------|-------------------------------|
-------------------------------|-------------------------------|
--3-3-3-3-3--3-3-3-3-3--3-3-3--|--5-5-5-5-5--5-5-5-5-5--5-5-5--|


  S S S S E  S S S S E  S S E     S S S S E  S S S S E  S S E   
-------------------------------|-------------------------------|
-------------------------------|-------------------------------|
--7-7-7-7-7--7-7-7-7-7--7-7-7--|--7-7-7-7-7--7-7-7-7-7--7-7-7--|
-------------------------------|-------------------------------|


  S S S S E  S S S S E  S S E     S S S S E  E   H         
-------------------------------|--------------------------|
-------------------------------|--------------------------|
-------------------------------|--------------------------|
--3-3-3-3-3--3-3-3-3-3--3-3-3--|--5-5-5-5-5--5S--L--------|


  S S S S E  S S S S E  S S E     S S S S E  S S S S E  S S E   
-------------------------------|-------------------------------|
-------------------------------|-------------------------------|
-------------------------------|-------------------------------|
--0-0-0-0-0--0-0-0-0-0--0-0-0--|--0-0-0-0-0--0-0-0-0-0--0-0-0--|


  S S S S E  S S S S E  S S E     S S S S E  S S S S E  S S E   
-------------------------------|-------------------------------|
-------------------------------|-------------------------------|
-------------------------------|-------------------------------|
--3-3-3-3-3--3-3-3-3-3--3-3-3--|--2-2-2-2-2--2-2-2-2-2--2-2-2--|


  S S S S E  S S S S E  S S E     S S S S E  S S S S E  S S E   
-------------------------------|-------------------------------|
-------------------------------|-------------------------------|
-------------------------------|-------------------------------|
--0-0-0-0-0--0-0-0-0-0--0-0-0--|--0-0-0-0-0--0-0-0-0-0--0-0-0--|


  S S S S E  S S S S E  S S E     S S S S E  S S S S E  S S E   
-------------------------------|-------------------------------|
-------------------------------|-------------------------------|
-------------------------------|-------------------------------|
--3-3-3-3-3--3-3-3-3-3--3-3-3--|--2-2-2-2-2--2-2-2-2-2--2-2-2--|


  S S S S E  S S S S E  S S E     S S S S E  S S S S E  S S E   
-------------------------------|-------------------------------|
-------------------------------|-------------------------------|
-------------------------------|-------------------------------|
--0-0-0-0-0--0-0-0-0-0--0-0-0--|--0-0-0-0-0--0-0-0-0-0--0-0-0--|


  S S S S E  S S S S E  S S E     S S S S E  S S S S E  S S E   
-------------------------------|-------------------------------|
-------------------------------|-------------------------------|
-------------------------------|-------------------------------|
--3-3-3-3-3--3-3-3-3-3--3-3-3--|--2-2-2-2-2--2-2-2-2-2--2-2-2--|


  S S S S E  S S S S E  S S E     S S S S E  S S S S E  S S E   
-------------------------------|-------------------------------|
-------------------------------|-------------------------------|
-------------------------------|-------------------------------|
--0-0-0-0-0--0-0-0-0-0--0-0-0--|--0-0-0-0-0--0-0-0-0-0--0-0-0--|


  S S S S E  S S S S E  S S E     S S S S E  S S S S E  S S E   
-------------------------------|-------------------------------|
-------------------------------|-------------------------------|
-------------------------------|-------------------------------|
--3-3-3-3-3--3-3-3-3-3--3-3-3--|--2-2-2-2-2--2-2-2-2-2--2-2-2--|


    S S S S S S S S S S S S S S S S    S S S S S S E  Q    Q       
|-----------------------------------|----------------------------||
|*----------------------------------|---------------------------*||
|*--2-2-2-2-3-3-3-3-2-2-2-2-0-0-0-0-|--2-2-2-2-3-3-3--2----2----*||
|-----------------------------------|----------------------------||


   S S S S S S S S S S S S S S S S    S S S S S S E  Q    Q       
-----------------------------------|----------------------------||
*----------------------------------|---------------------------*||
*----------------------------------|---------------------------*||
---2-2-2-2-3-3-3-3-2-2-2-2-0-0-0-0-|--2-2-2-2-3-3-3--2----2-----||


   E  E  E  E  E  E  E  E  E  E  E  E   
---------------------------------------|
*--------------------------------------|
*--------------------------------------|
---2-----2--2-----2--2-----2--3--2--0--|


  E  E  E  E  E  E  E  E  E  E  E  E   9x  E  E  E  E  E  E  E  E  E  E  E  E   
---------------------------------------||--------------------------------------|
--------------------------------------*||--------------------------------------|
--------------------------------------*||--------------------------------------|
--2-----2--2-----2--2-----2--3--2--0---||--2-----2--2-----2--2-----2--3--2--0--|


  E  E  E  E  E  E  E  E  E  E  E  E     E  E  E  E  E  E  E  E  E  E  E  E   
--------------------------------------|--------------------------------------|
--------------------------------------|--------------------------------------|
--------------------------------------|--------------------------------------|
--2-----2--2-----2--2-----2--3--2--0--|--2-----2--2-----2--2-----2--3--2--0--|


  E  E  E  E  E  E  E  E  E  E  E  E     E  E  E  E  E  E  E  E  E  E  E  E   
--------------------------------------|--------------------------------------|
--------------------------------------|--------------------------------------|
--------------------------------------|--------------------------------------|
--2-----2--2-----2--2-----2--3--2--0--|--2-----2--2-----2--2-----2--3--2--0--|


  E  E  E  E  E  E  E  E  E  E  E  E     E  E  E  E  E  E  E  E  E  E  E  E   
--------------------------------------|--------------------------------------|
--------------------------------------|--------------------------------------|
--------------------------------------|--------------------------------------|
--2-----2--2-----2--2-----2--3--2--0--|--2-----2--2-----2--2-----2--3--2--0--|


  E  E  E  E  E  E  E  E  E  E  E  E     E  E  E  E  E  E  E  E  E  E  E  E   
--------------------------------------|--------------------------------------|
--------------------------------------|--------------------------------------|
--------------------------------------|--------------------------------------|
--2-----2--2-----2--2-----2--3--2--0--|--2-----2--2-----2--2-----2--3--2--0--|


  E  E  E  E  E  E  E  E  E  E  E  E     E  E  E  E  E  E  E  E  E  E  E  E   
--------------------------------------|--------------------------------------|
--------------------------------------|--------------------------------------|
--------------------------------------|-----------------------------0--2--3--|
--2-----2--2-----2--2-----2--3--2--0--|--------------------------------------|


  E  E  E  E  E  E  E  E  E  E  E  E     E  E  E  E  E  E  E  E  E  E  E  E   
--------------------------------------|--------------------------------------|
--------------------------------------|--------------------------------------|
--------------------------------------|--------------------------------------|
-----------------------------3--5--7--|-----------------------------3--2--0--|


  E  E  E  E  E  E  E  E  E  E  E  E     E  E  E  E  E  E  E  E  E  E  E  E   
--------------------------------------|--------------------------------------|
--------------------------------------|--------------------------------------|
-----------------------------5--3--2--|-----------------------------0--2--3--|
--3--2--0--2--------------------------|--------------------------------------|


  E  E  E  E  E  E  E  E  E  E  E  E     E  E  E  E  E  E  E  E  E  E  E  E   
--------------------------------------|--------------------------------------|
--------------------------------------|--------------------------------------|
--------------------------------------|--------------------------------------|
-----------------------------3--5--7--|-----------------------------3--2--0--|


  E  E  E  E  E  E  E  E  E  E  E  E       E   E  E  S S E  S S E  S S  
--------------------------------------||-------------------------------|
--------------------------------------||*------------------------------|
--------------------------------------||*------------------------------|
--3--2--0--2--------------------------||---0h--2--2--2-2-2--2-2-2--2-2-|


  E  S S E  S S E  S S E  E     E   E  E  S S E  S S E  S S  
-----------------------------|------------------------------|
-----------------------------|------------------------------|
-----------------------------|------------------------------|
--2--2-2-2--2-2-2--2-2-2--2--|--0h--2--2--2-2-2--2-2-2--2-2-|


  E  E  E  Q    Q    E   5x  E   E  E  S S E  S S E  S S  
-------------------------||------------------------------|
------------------------*||------------------------------|
------------------------*||------------------------------|
--0--2--3--5----3----2---||--0h--2--2--2-2-2--2-2-2--2-2-|


  E  S S E  S S E  S S E  E     E   E  E  S S E  S S E  S S  
-----------------------------|------------------------------|
-----------------------------|------------------------------|
-----------------------------|------------------------------|
--2--2-2-2--2-2-2--2-2-2--2--|--0h--2--2--2-2-2--2-2-2--2-2-|


  E  E  E  Q    Q    E     S S S S Q    E  Q    E     S S S S Q    E  Q    E   
------------------------|--------------------------|--------------------------|
------------------------|--------------------------|--------------------------|
------------------------|--------------------------|--------------------------|
--0--2--3--5----3----2--|--2-2-2-2-2----2--2----2--|--0-0-0-0-0----0--0----0--|


  S S S S Q    E  Q    E     S S S S Q    E  Q    E   
--------------------------|--------------------------|
--------------------------|--------------------------|
--------------------------|--------------------------|
--3-3-3-3-3----3--3----3--|--2-2-2-2-2----2--2----2--|


  E   E  E  S S E  S S E  S S    E  S S E  S S E  S S E  E   
------------------------------|-----------------------------|
------------------------------|-----------------------------|
------------------------------|-----------------------------|
--0h--2--2--2-2-2--2-2-2--2-2-|--2--2-2-2--2-2-2--2-2-2--2--|


  E   E  E  S S E  S S E  S S    E  S S E  S S E  S S E  E   
------------------------------|-----------------------------|
------------------------------|-----------------------------|
------------------------------|-----------------------------|
--0h--2--2--2-2-2--2-2-2--2-2-|--2--2-2-2--2-2-2--2-2-2--2--|


  S S S S Q    E  Q    E     S S S S Q    E  Q    E   
--------------------------|--------------------------|
--------------------------|--------------------------|
--------------------------|--------------------------|
--2-2-2-2-2----2--2----2--|--0-0-0-0-0----0--0----0--|


  S S S S Q    E  Q    E     S S S S Q    E  Q    E   
--------------------------|--------------------------|
--------------------------|--------------------------|
--------------------------|--------------------------|
--3-3-3-3-3----3--3----3--|--2-2-2-2-2----2--2----2--|


    E   E  E  S S E  S S E  S S    Q    Q    Q    Q     
|-------------------------------|--4-------------------|
|*--5p--4--4--4-4-4--4-4-4--4-4-|-------7----5----4----|
|*------------------------------|----------------------|
|-------------------------------|----------------------|


  E   E  E  S S E  S S E  S S    Q    Q    Q    Q     
------------------------------|--4-------------------|
--5p--4--4--4-4-4--4-4-4--4-4-|-------7----5----4----|
------------------------------|----------------------|
------------------------------|----------------------|


  S S S S Q     S  S  S  S  Q       S S S S Q     S  S  S  S  Q       
---------------------------------|----------------------------------||
---------------------------------|---------------------------------*||
--7-7-7-7-7----10-10-10-10-10----|--5-5-5-5-5----10-10-10-10-10----*||
---------------------------------|----------------------------------||


   S S E  E  E  Q    S S S S    E   E  E  Q    Q    E   
-----------------------------|-------------------------|
*----------------------------|-------------------------|
*---------------7------------|------------7----7----7--|
---0-0-0--0--0-------0-0-0-0-|--7S--8--7---------------|


  S S E  E  E  Q    S S S S    E   E  E  Q    Q    E   
----------------------------|-------------------------|
----------------------------|-------------------------|
---------------7------------|------------7----5----5--|
--0-0-0--0--0-------0-0-0-0-|--7S--8--7---------------|


  S S E  E  E  Q    S S S S    E   E  E  Q    Q    E   
----------------------------|-------------------------|
----------------------------|-------------------------|
---------------7------------|------------7----7----7--|
--0-0-0--0--0-------0-0-0-0-|--7S--8--7---------------|


  S S S S E  S S S S E  S S E     S S S S E  S S S S E  S S E   3x
-------------------------------|--------------------------------||
-------------------------------|-------------------------------*||
--5-5-5-5-5--5-5-5-5-5--5-5-5--|--3-3-3-3-3--3-3-3-3-3--3-3-3--*||
-------------------------------|--------------------------------||


  S S E  E  E  H           W                   W                H         
------------------------|-------------------|----------------------------|
------------------------|-------------------|----------------------------|
------------------------|-------------------|----------------------------|
--0-0-0--0--0--0--------|--L----------------|--L----------------L--------|


  W.                  H        Q    Q.        H        H        H         
-------------------|-----------------------|-----------------------------|
-------------------|-----------------------|-----------------------------|
-------------------|-----------------------|-----------------------------|
-------------------|-----------------------|-----------------------------|


  H        Q    Q.        H        H        H         
-----------------------|-----------------------------|
-----------------------|-----------------------------|
-----------------------|-----------------------------|
-----------------------|-----------------------------|


  H        H        H           H        H        H         
-----------------------------|-----------------------------|
-----------------------------|-----------------------------|
-----------------------------|-----------------------------|
-----------------------------|-----------------------------|


  H        H        H           H        H        H         
-----------------------------|-----------------------------|
-----------------------------|-----------------------------|
-----------------------------|-----------------------------|
-----------------------------|-----------------------------|


  H        H        H           H        H        H         
-----------------------------|-----------------------------|
-----------------------------|-----------------------------|
-----------------------------|-----------------------------|
-----------------------------|-----------------------------|


  H        H        H           H        H        H          
-----------------------------|-----------------------------||
-----------------------------|-----------------------------||
-----------------------------|-----------------------------||
-----------------------------|-----------------------------||




Duration Legend
---------------
W - whole
H - half
Q - quarter
E - 8th
S - 16th
T - 32nd
X - 64th
. - note dotted
|-n-|  - n-tuplets


Tablature Legend
----------------
L - tied note
x - dead note
g - grace note
(n) - ghost note
> - accentuded note
NH - natural harmonic
AH - artificial harmonic
TH - tapped harmonic
SH - semi harmonic
PH - pitch harmonic
h - hammer on
p - pull off
b - bend
br - bendRelease
pb - preBend
pbr - preBendRelease
brb - bendReleaseBend
\n/ - tremolo bar dip
\n - tremolo bar dive
-/n - tremolo bar Release up
/n\ - tremolo bar inverted dip
/n - tremolo bar return
-\n - tremolo bar Release down
S - shift slide
s - legato slide
/ -  slide into from below or out of upwards
\ -  slide into from above or out of downwards
~ - vibrato
W - wide vibrato
tr - trill
TP - tremolo picking
T - tapping
S - slap
P - pop
< - fade in
^ - brush up
v - brush down

            
            
Suggest correction
Creating personal tab
Creating personal tab
You can edit any tab online and save it as your Personal.

You can edit, replace or remove any tab part or add personal notes – all changes will be seen only by you.

Personal tabs can be accessed anytime from any device, even offline.
Learn more »
Give kudos to tab author, rate the tab!
1 2 3 4 5
comments
print report bad tab
guest
You may want to rate the tab now too:
select rating
Wanna post a correction for this tab? Suggest correction