Oops, an error
Loading. Please wait.

Violate tab

version 2
version 2

Whole song

Interactive

458 views 1 this week
no commentswrite comment
1 2 3 4 5
3 more votes to show rating
add to favorites
×
Save as Personal and add changes to this tab that will be seen only by you. Learn more ›
×
You can save this tab as Personal to edit and correct it or add notes. All changes will be seen only by you. Learn more »
launch autoscroll
font size
0
reset
how to read this tab
guitar tuner
edit
Autoscroll
slow
fast
+/-
esc
set tempo
stop
Author
Violate!

Iced Earth






"I don't know the specific tuning, the only 
thing that I know is that you need to have 
your guitar tuned so you use power chords, 
not barre chords. I keep my guitar on stan-
dard." 


"Please listen to the song while tabbing this 
if you haven't heard it before. Listen to it 
for the timing and such."










RHYTHM GUITAR (Jon Schaffer)

Intro:

e |----------------------|
B |----------------------|
G |----------------------|  Play 4 times.
D |----------------------|
A |--1----1-----3-----5--|
E |--0--0-0---0-1---0-3--|
        *     *     *                                             


_______________________________________________________________________



Verse 1

e |------------------------------------------------------------|
B |------------------------------------------------------------|
G |----------------------Play-2-times--------------------------|
D |------------------------------------------------------------| 
A |----------------------------------3-1---------------3----5--|
E |--000-000-000-000-000-000-000-000-1-0-000-000-000-002--003--|
     *** *** *** *** *** *** *** ***     *** *** *** **   **    



e |------------------------------------------------------------|
B |------------------------------------------------------------|
G |------------------------------------------------------------|
D |------------------------------------------------------------| 
A |----------------------------------3-1---------------3----5--|
E |--000-000-000-000-000-000-000-000-1-0-000-000-000-002--003--|
     *** *** *** *** *** *** *** ***     *** *** *** **   **    
     Enter now the fiendish one, twisted little man.



e |------------------------------------------------------------|
B |------------------------------------------------------------|
G |----------------------Play-2-times--------------------------|
D |------------------------------------------------------------| 
A |----------------------------------3-1---------------3----5--|
E |--000-000-000-000-000-000-000-000-1-0-000-000-000-002--003--|
     *** *** *** *** *** *** *** ***     *** *** *** **   **    
   Vile wretch...            ...Perverted little man.



e |------------------------------------------------------------|
B |------------------------------------------------------------|
G |----------------------Play-2-times--------------------------|
D |------------------------------------------------------------| 
A |----------------------------------3-1---------------3----5--|
E |--000-000-000-000-000-000-000-000-1-0-000-000-000-002--003--|
     *** *** *** *** *** *** *** ***     *** *** *** **   **    
     Born of hell...                 ...In his veins.



e |------------------------------------------------------------|
B |------------------------------------------------------------|
G |----------------------Play-2-times--------------------------|
D |------------------------------------------------------------| 
A |----------------------------------3-1---------------3----5--|
E |--000-000-000-000-000-000-000-000-1-0-000-000-000-002--003--|
     *** *** *** *** *** *** *** ***     *** *** *** **   **    
     Demonic clown...                ...Gone insane!


______________________________________________________________________



Chorus A


e |-------------------------------|--------------------------------|
B |-------------------------------|--------------------------------|
G |-------------------------------|--------------------------------|
D |-------------------------------|--------------------------------|
A |--1------5------4--------------|--1------5------4-------------1-|
E |--0-0-0--3-0-0--2-2-2-2-2-2-2--|--0-0-0--3-0-0--2-2-2-2-2-2-2-0-|
       * *    * *    * * * * * *       * *    * *    * * * * * * 
     En  -  ter    now.           



e |-------------------------------|--------------------------------|
B |-------------------------------|--------------------------------|
G |-------------------------------|--------------------------------|
D |-------------------------------|--------------------------------|
A |--1------5------4--------------|--1------5------4-------------1-|
E |--0-0-0--3-0-0--2-2-2-2-2-2-2--|--0-0-0--3-0-0--2-2-2-2-2-2-2-0-|
       * *    * *    * * * * * *       * *    * *    * * * * * * 
     En  -  ter    now.                              And Violate!


_____________________________________________________________________



                         Solo drum part.


_____________________________________________________________________


Verse 2

e |------------------------------------------------------------|
B |------------------------------------------------------------|
G |------------------------------------------------------------|
D |------------------------------------------------------------| 
A |----------------------------------3-1---------------3----5--|
E |--000-000-000-000-000-000-000-000-1-0-000-000-000-002--003--|
     *** *** *** *** *** *** *** ***     *** *** *** **   **    
     I will beat you...                    ...In two.



e |------------------------------------------------------------|
B |------------------------------------------------------------|
G |------------------------------------------------------------|
D |------------------------------------------------------------| 
A |----------------------------------3-1---------------3----5--|
E |--000-000-000-000-000-000-000-000-1-0-000-000-000-002--003--|
     *** *** *** *** *** *** *** ***     *** *** *** **   **    
     I will feast on...                  ...Can't do.


e |----------------------------------------------------------|
B |----------------------------------------------------------|
G |----------------------------------------------------------|
D |----------------------------------------------------------| 
A |---------------------------------3-1---------------3----5-|
E |-000-000-000-000-000-000-000-000-1-0-000-000-000-002--003-|
    *** *** *** *** *** *** *** ***     *** *** *** **   **    
    I will rip your...              ...As you cry.



e |------------------------------------------------------------|
B |------------------------------------------------------------|
G |------------------------------------------------------------|
D |------------------------------------------------------------| 
A |----------------------------------3-1---------------3----5--|
E |--000-000-000-000-000-000-000-000-1-0-000-000-000-002--003--|
     *** *** *** *** *** *** *** ***     *** *** *** **   **    
     I revel in your...         ...And make you die!



_____________________________________________________________________



Chorus B


e |-------------------------------|--------------------------------|
B |-------------------------------|--------------------------------|
G |-------------------------------|--------------------------------|
D |-------------------------------|--------------------------------|
A |--1------5------4--------------|--1------5------4-------------1-|
E |--0-0-0--3-0-0--2-2-2-2-2-2-2--|--0-0-0--3-0-0--2-2-2-2-2-2-2-0-|
       * *    * *    * * * * * *       * *    * *    * * * * * * 
     En  -  ter    now.           


e |-------------------------------|--------------------------------|
B |-------------------------------|--------------------------------|
G |-------------------------------|--------------------------------|
D |-------------------------------|--------------------------------|
A |--1------5------4--------------|--1------5------4-------------1-|
E |--0-0-0--3-0-0--2-2-2-2-2-2-2--|--0-0-0--3-0-0--2-2-2-2-2-2-2-0-|
       * *    * *    * * * * * *       * *    * *    * * * * * * 
     En  -  ter    now.                              And Violate!



_______________________________________________________________________



                            Solo Drum Part


________________________________________________________________________




e |--------------------------------------------------------|
B |--------------------------------------------------------|
G |---------------------Repeat-Five-times------------------|
D |--------------------------------------------------------|
A |----------12\-----------9\-----------12\-----------5-7--|
E |--000-000-10\---000-000-7\---000-000-10\---000-000-3-5--|
     *** ***       *** ***      *** ***       *** ***                        

Solo begins after second time.



_________________________________________________________________________




Repeat chorus.



_________________________________________________________________________




Outro

e |---------------------------------|
B |---------------------------------|
G |---------------------------------|
D |---------------------------------|
A |--------1---------3--------6--5--|
E |--0-0-0-0---0-0-0-1--0-0-0-4--3--|
     * * *     * * *    * * *               





"This fades out on the studio version of 
the song. Live, they immediately go into 
another song (Into the 'Last Laugh' I 
believe on 'Alive in Athens').

"If your in a band and want to play this 
live, I suggest going into another song 
immediately, or just have the last note 
ring out. 

"I don't know and I don't care, just have 
fun with this song."



Tabbed by Heyden "The Wicked" LaBelle...

            
            
Suggest correction
Creating personal tab
Creating personal tab
You can edit any tab online and save it as your Personal.

You can edit, replace or remove any tab part or add personal notes – all changes will be seen only by you.

Personal tabs can be accessed anytime from any device, even offline.
Learn more »
Give kudos to tab author, rate the tab!
1 2 3 4 5
comments
print report bad tab
guest
You may want to rate the tab now too:
select rating
Wanna post a correction for this tab? Suggest correction