Oops, an error
Loading. Please wait.
We have an official Watching Over Me tab made by UG professional guitarists. Check out the tab »
×
561 views 1 this week
no commentswrite comment
1 2 3 4 5
3 more votes to show rating
add to favorites
×
Save as Personal and add changes to this tab that will be seen only by you. Learn more ›
×
You can save this tab as Personal to edit and correct it or add notes. All changes will be seen only by you. Learn more »
launch autoscroll
font size
0
reset
guitar tuner
backing track
0:00
0:00
edit
Autoscroll
slow
fast
+/-
esc
set tempo
stop
                               Watching Over Me                                 

Transcribed by an unregistered user

                                                                      Iced Earth
Bass
Eb Tuning



      H           W                   W                   W                 
F#||-----------|-------------------|-------------------|-------------------|
C#||-----------|-------------------|-------------------|-------------------|
G#||-----------|-------------------|-------------------|-------------------|
D#||-----------|-------------------|-------------------|-------------------|


  W                   W                   W                   W                 
-------------------|-------------------|-------------------|-------------------|
-------------------|-------------------|-------------------|-------------------|
-------------------|-------------------|-------------------|-------------------|
-------------------|-------------------|-------------------|-------------------|


  W                   W                   W                   W                 
-------------------|-------------------|-------------------|-------------------|
-------------------|-------------------|-------------------|-------------------|
-------------------|-------------------|-------------------|-------------------|
-------------------|-------------------|-------------------|-------------------|


  W                   W                   W                   W                 
-------------------|-------------------|-------------------|-------------------|
-------------------|-------------------|-------------------|-------------------|
-------------------|-------------------|-------------------|-------------------|
-------------------|-------------------|-------------------|-------------------|


  W                   W                   W                   W                 
-------------------|-------------------|-------------------|-------------------|
-------------------|-------------------|-------------------|-------------------|
-------------------|-------------------|-------------------|-------------------|
-------------------|-------------------|-------------------|-------------------|


  W                   W                   W                   W                 
-------------------|-------------------|-------------------|-------------------|
-------------------|-------------------|-------------------|-------------------|
-------------------|-------------------|-------------------|-------------------|
-------------------|-------------------|-------------------|-------------------|


                            Chorus                                       
  W                   E  E  E      E  H           E  S S E  E  H         
-------------------|---------------------------|------------------------|
-------------------|---------------------------|------------------------|
-------------------|---------------------------|--3--3-3-3--3--L--------|
-------------------|--0--0--0------0--L--------|------------------------|


  E  E  E  E  H           Q    E  E  Q    Q       E  E  E  E  H         
-----------------------|-----------------------|-----------------------|
-----------------------|-----------------------|-----------------------|
-----------------------|-----------------------|-----------------------|
--3--3--3--3--L--------|--2----2--3--L----2----|--0--0--0--0--L--------|


  E  S S E  E  H           E  E  E  E  H           Q    E  E  Q    Q     
------------------------|-----------------------|-----------------------|
------------------------|-----------------------|-----------------------|
--3--3-3-3--3--L--------|-----------------------|-----------------------|
------------------------|--3--3--3--3--L--------|--2----2--3--L----2----|


  E  E  E  E  H           E  S S E  E  H           E  E  E  E  H         
-----------------------|------------------------|-----------------------|
-----------------------|------------------------|-----------------------|
-----------------------|--3--3-3-3--3--L--------|-----------------------|
--0--0--0--0--L--------|------------------------|--3--3--3--3--L--------|


  Q    E  E  Q    Q       E  E  E  E  H           E  S S E  E  H         
-----------------------|-----------------------|------------------------|
-----------------------|-----------------------|------------------------|
-----------------------|-----------------------|--3--3-3-3--3--L--------|
--2----2--3--L----2----|--0--0--0--0--L--------|------------------------|


                                                  End chorus        
  E  E  E  E  H           Q    E  E  Q    Q       W                 
-----------------------|-----------------------|-------------------|
-----------------------|-----------------------|-------------------|
-----------------------|-----------------------|-------------------|
--3--3--3--3--L--------|--2----2--3--L----2----|--0----------------|


  W                   W                   H        E  E  E  E   
-------------------|-------------------|-----------------------|
-------------------|-------------------|-----------------------|
--3----------------|-------------------|-----------------------|
-------------------|--3----------------|--2--------3--0--2--0--|


  W                   W                   W                 
-------------------|-------------------|-------------------|
-------------------|-------------------|-------------------|
-------------------|--3----------------|-------------------|
--0----------------|-------------------|--3----------------|


                          Verse 2                               
  H        E  E  E  E     W                   W                 
-----------------------|-------------------|-------------------|
-----------------------|-------------------|-------------------|
-----------------------|-------------------|--3----------------|
--2--------3--0--2--0--|--0----------------|-------------------|


  W                   H        E  E  E  E     W                 
-------------------|-----------------------|-------------------|
-------------------|-----------------------|-------------------|
-------------------|-----------------------|-------------------|
--3----------------|--2--------3--0--2--0--|--0----------------|


  W                   W                   H        E  E  E  E   
-------------------|-------------------|-----------------------|
-------------------|-------------------|-----------------------|
--3----------------|-------------------|-----------------------|
-------------------|--3----------------|--2--------3--0--2--0--|


  W                   W                   W                 
-------------------|-------------------|-------------------|
-------------------|-------------------|-------------------|
-------------------|--3----------------|-------------------|
--0----------------|-------------------|--3----------------|


  H        E  E  E  E     W                   W                 
-----------------------|-------------------|-------------------|
-----------------------|-------------------|-------------------|
-----------------------|-------------------|--3----------------|
--2--------3--0--2--0--|--0----------------|-------------------|


                                              Chorus                    
  W                   H        E  E  E  E     E      E  E  E  H         
-------------------|-----------------------|---------------------------|
-------------------|-----------------------|---------------------------|
-------------------|-----------------------|---------------------------|
--3----------------|--2--------3--0--2--0--|--0------0--0--0--L--------|


  E  S S E  E  H           E  E  E  E  H           Q    E  E  Q    Q     
------------------------|-----------------------|-----------------------|
------------------------|-----------------------|-----------------------|
--3--3-3-3--3--L--------|-----------------------|-----------------------|
------------------------|--3--3--3--3--L--------|--2----2--3--L----2----|


  E  E  E  E  H           E  S S E  E  H           E  E  E  E  H         
-----------------------|------------------------|-----------------------|
-----------------------|------------------------|-----------------------|
-----------------------|--3--3-3-3--3--L--------|-----------------------|
--0--0--0--0--L--------|------------------------|--3--3--3--3--L--------|


  Q    E  E  Q    Q       E  E  E  E  H           E  S S E  E  H         
-----------------------|-----------------------|------------------------|
-----------------------|-----------------------|------------------------|
-----------------------|-----------------------|--3--3-3-3--3--L--------|
--2----2--3--L----2----|--0--0--0--0--L--------|------------------------|


  E  E  E  E  H           Q    E  E  Q    Q       E  E  E  E  H         
-----------------------|-----------------------|-----------------------|
-----------------------|-----------------------|-----------------------|
-----------------------|-----------------------|-----------------------|
--3--3--3--3--L--------|--2----2--3--L----2----|--0--0--0--0--L--------|


  E  S S E  E  H           E  E  E  E  H           Q    E  E  Q    Q     
------------------------|-----------------------|-----------------------|
------------------------|-----------------------|-----------------------|
--3--3-3-3--3--L--------|-----------------------|-----------------------|
------------------------|--3--3--3--3--L--------|--2----2--3--L----2----|


  Solo                                                                          
  E    E  E  E  E  E  Q       E  E  E  E  E  E  Q       E  E  E  E  E  E  Q     
---------------------------|-------------------------|-------------------------|
---------------------------|-------------------------|-------------------------|
---------------------------|--3--3--3--3--3--3--3----|-------------------------|
--0----0--0--0--0--0--0----|-------------------------|--3--3--3--3--3--3--3----|


  E  E  E  E  E  E  Q       E  E  E  E  E  E  Q       E  E  E  E  E  E  Q     
-------------------------|-------------------------|-------------------------|
-------------------------|-------------------------|-------------------------|
-------------------------|-------------------------|--3--3--3--3--3--3--3----|
--2--2--2--2--3--0--2----|--0--0--0--0--0--0--0----|-------------------------|


  E  E  E  E  E  E  Q       E  E  E  E  E  E  Q       E  E  E  E  H         
-------------------------|-------------------------|-----------------------|
-------------------------|-------------------------|-----------------------|
-------------------------|-------------------------|--3--3--3--3--L--------|
--3--3--3--3--3--3--3----|--2--2--2--2--3--0--2----|-----------------------|


                                                              |----3----|     
  E  E  E  E  H           E  E  E  E  H           E  E  E  E  Q    Q    Q     
-----------------------|-----------------------|-----------------------------|
-----------------------|-----------------------|-----------------------------|
--5--5--5--5--L--------|--3--3--3--3--L--------|--5--5--5--5--5----5----5----|
-----------------------|-----------------------|-----------------------------|


  E  E  E  E  H           E  E  E  E  H           E  E  E  E  E  E  E  E   
-----------------------|-----------------------|--------------------------|
-----------------------|-----------------------|--------------------------|
--3--3--3--3--L--------|--5--5--5--5--L--------|--2--2--2--2--2--2--2--2--|
-----------------------|-----------------------|--------------------------|


                             Chorus                                             
  E  E  E  E  E  E  E  E     E      E  E  E  H           E  S S E  E  H         
--------------------------|---------------------------|------------------------|
--------4--5--------------|---------------------------|------------------------|
--2--2--------------------|---------------------------|--3--3-3-3--3--L--------|
--------------3--5--2--3--|--0------0--0--0--L--------|------------------------|


  E  E  E  E  H           E  E  E  E  Q    Q       E  E  E  E  H         
-----------------------|------------------------|-----------------------|
-----------------------|------------------------|-----------------------|
-----------------------|------------------------|-----------------------|
--3--3--3--3--L--------|--2--0--2--3--L----2----|--0--0--0--0--L--------|


  E  S S E  E  H           E  E  E  E  H           Q    E  E  Q    Q     
------------------------|-----------------------|-----------------------|
------------------------|-----------------------|-----------------------|
--3--3-3-3--3--L--------|-----------------------|-----------------------|
------------------------|--3--3--3--3--L--------|--2----2--3--L----2----|


  E  E  E  E  H           E  S S E  E  H           E  E  E  E  H         
-----------------------|------------------------|-----------------------|
-----------------------|------------------------|-----------------------|
-----------------------|--3--3-3-3--3--L--------|-----------------------|
--0--0--0--0--L--------|------------------------|--3--3--3--3--L--------|


  Q    E  E  Q    Q       E  E  E  E  H           E  S S E  E  H         
-----------------------|-----------------------|------------------------|
-----------------------|-----------------------|------------------------|
-----------------------|-----------------------|--3--3-3-3--3--L--------|
--2----2--3--L----2----|--0--0--0--0--L--------|------------------------|


  E  E  E  E  H           Q    E  E  Q    Q     
-----------------------|-----------------------|
-----------------------|-----------------------|
-----------------------|-----------------------|
--3--3--3--3--L--------|--2----2--3--L----2----|


  Chorus (again)                                             
  E              E  E  E  H           E  S S E  E  H         
-----------------------------------|------------------------|
-----------------------------------|------------------------|
-----------------------------------|--3--3-3-3--3--L--------|
--0--------------0--0--0--L--------|------------------------|


  E  E  E  E  H           Q    E  E  Q    Q       E  E  E  E  H         
-----------------------|-----------------------|-----------------------|
-----------------------|-----------------------|-----------------------|
-----------------------|-----------------------|-----------------------|
--3--3--3--3--L--------|--2----2--3--L----2----|--0--0--0--0--L--------|


  E  S S E  E  H           E  E  E  E  H           Q    E  E  Q    Q     
------------------------|-----------------------|-----------------------|
------------------------|-----------------------|-----------------------|
--3--3-3-3--3--L--------|-----------------------|-----------------------|
------------------------|--3--3--3--3--L--------|--2----2--3--L----2----|


  E  E  E  E  H           E  S S E  E  H           E  E  E  E  H         
-----------------------|------------------------|-----------------------|
-----------------------|------------------------|-----------------------|
-----------------------|--3--3-3-3--3--L--------|-----------------------|
--0--0--0--0--L--------|------------------------|--3--3--3--3--L--------|


  Q    E  E  Q    Q       E  E  E  E  H           E  S S E  E  H         
-----------------------|-----------------------|------------------------|
-----------------------|-----------------------|------------------------|
-----------------------|-----------------------|--3--3-3-3--3--L--------|
--2----2--3--L----2----|--0--0--0--0--L--------|------------------------|


  E  E  E  E  H           Q    E  E  Q    Q     
-----------------------|-----------------------|
-----------------------|-----------------------|
-----------------------|-----------------------|
--3--3--3--3--L--------|--2----2--3--L----2----|


  repeat & fade                                             
  E             E  E  E  H           E  S S E  E  H         
----------------------------------|------------------------|
----------------------------------|------------------------|
----------------------------------|--3--3-3-3--3--L--------|
--0-------------0--0--0--L--------|------------------------|


  E  E  E  E  H           Q    E  E  Q    Q       E  E  E  E  H         
-----------------------|-----------------------|-----------------------|
-----------------------|-----------------------|-----------------------|
-----------------------|-----------------------|-----------------------|
--3--3--3--3--L--------|--2----2--3--L----2----|--0--0--0--0--L--------|


  E  S S E  E  H           E  E  E  E  H           Q    E  E  Q    Q     
------------------------|-----------------------|-----------------------|
------------------------|-----------------------|-----------------------|
--3--3-3-3--3--L--------|-----------------------|-----------------------|
------------------------|--3--3--3--3--L--------|--2----2--3--L----2----|


  E  E  E  E  H           E  S S E  E  H           E  E  E  E  H         
-----------------------|------------------------|-----------------------|
-----------------------|------------------------|-----------------------|
-----------------------|--3--3-3-3--3--L--------|-----------------------|
--0--0--0--0--L--------|------------------------|--3--3--3--3--L--------|


  Q    E  E  Q    Q       E  E  E  E  H           E  S S E  E  H         
-----------------------|-----------------------|------------------------|
-----------------------|-----------------------|------------------------|
-----------------------|-----------------------|--3--3-3-3--3--L--------|
--2----2--3--L----2----|--0--0--0--0--L--------|------------------------|


  E  E  E  E  H           Q    E  E  Q    Q      
-----------------------|-----------------------||
-----------------------|-----------------------||
-----------------------|-----------------------||
--3--3--3--3--L--------|--2----2--3--L----2----||




Duration Legend
---------------
W - whole
H - half
Q - quarter
E - 8th
S - 16th
T - 32nd
X - 64th
. - note dotted
|-n-|  - n-tuplets


Tablature Legend
----------------
L - tied note
x - dead note
g - grace note
(n) - ghost note
> - accentuded note
NH - natural harmonic
AH - artificial harmonic
TH - tapped harmonic
SH - semi harmonic
PH - pitch harmonic
h - hammer on
p - pull off
b - bend
br - bendRelease
pb - preBend
pbr - preBendRelease
brb - bendReleaseBend
\n/ - tremolo bar dip
\n - tremolo bar dive
-/n - tremolo bar Release up
/n\ - tremolo bar inverted dip
/n - tremolo bar return
-\n - tremolo bar Release down
S - shift slide
s - legato slide
/ -  slide into from below or out of upwards
\ -  slide into from above or out of downwards
~ - vibrato
W - wide vibrato
tr - trill
TP - tremolo picking
T - tapping
S - slap
P - pop
< - fade in
^ - brush up
v - brush down

            
            
Suggest correction
Creating personal tab
Creating personal tab
You can edit any tab online and save it as your Personal.

You can edit, replace or remove any tab part or add personal notes – all changes will be seen only by you.

Personal tabs can be accessed anytime from any device, even offline.
Learn more »
Give kudos to tab author, rate the tab!
1 2 3 4 5
comments
print report bad tab
guest
You may want to rate the tab now too:
select rating
Wanna post a correction for this tab? Suggest correction