Oops, an error
Loading. Please wait.

Let It Go tab

version 1
version 1

Whole song

10,345 views 114 this week
5 commentsread comments
1 2 3 4 5
x 10
add to favorites
×
Save as Personal and add changes to this tab that will be seen only by you. Learn more ›
×
You can save this tab as Personal to edit and correct it or add notes. All changes will be seen only by you. Learn more »
launch autoscroll
font size
0
reset
how to read this tab
guitar tuner
edit
Autoscroll
slow
fast
+/-
esc
set tempo
stop
Author
Difficulty
intermediate
-------------------------------------------------------------------------------
                             Let It Go - Idina Menzel
-------------------------------------------------------------------------------
Tabbed by: Tylinn Growt
E-mail:


I have made this tab with the vocals being the main focus, with a few bits of piano worked in. 
This way the kids can sing along..or yourself :)


Tuning: Standard

[Intro]
e|-15-16---15-16--15-16----16-15----13-15----13-15---------------------------|
B|----------------------------------------------------16-14------------------|
G|------17--------------17-------15-------15-------15------------------------|
D|---------------------------------------------------------------------------|
A|---------------------------------------------------------------------------|
E|---------------------------------------------------------------------------|

e|-15-15---15-16--15-16----16-15----13-15----13-15---------------------------|
B|----------------------------------------------------16--15-----------------|
G|------17--------------17-------15-------15-------15-----15-----------------|
D|---------------------------------------------------------------------------|
A|---------------------------------------------------------------------------|
E|---------------------------------------------------------------------------|

[Verse]
e|---------------------------------------------------------------------------|
B|---------------------------------------------------------------------------|
G|---------------------------------------------------------------------------|
D|---------------------------------------------------------------------------|
A|-13-15-15-15-15-15-15-13-------------13-13-13------------------------------|
E|-------------------------16-16----16----------16-15-13---------------------|
The snow glows white on the mountain tonight, Not a footprint to be seen

e|---------------------------------------------------------------------------|
B|---------------------------------------------------------------------------|
G|---------------------------------------------------------------------------|
D|---------------------------------------------------------------------------|
A|----13-15-15-15-18-18-15----15----13-13-15-13-13---------------------------|
E|-13----------------------------16------------------------------------------|
A kingdom of isolation, And it looks like I'm the Queen

e|---------------------------------------------------------------------------|
B|---------------------------------------------------------------------------|
G|---------------------------------------------------------------------------|
D|-------13-15-13----13--13-13-----------------------------------------------|
A|-15-15----------15-----------16-15-16-15---15-15-13----13---15-15-13-------|
E|----------------------------------------------------16--------------16-13--|
The wind is howling like this swirling storm inside, Couldn't keep it in - heaven knows I tried

e|---------------------------------------------------------------------------|
B|---------------------------------------------------------------------------|
G|--------------------------------------------12-13-12-12--------------------|
D|-------13-13-------15-15--15-13-15-15----15--------------------------------|
A|-13-13-------13-13--------------------13-----------------------------------|
E|---------------------------------------------------------------------------|
Don't let them in don't let them see, Be the good girl you always have to be

e|---------------------------------------------------------------------------|
B|---------------------------------------------------------------------------|
G|---------------------------------12-13~------------------------------------|
D|-------13-13-------15-15~--13-15-------------------------------------------|
A|-13-13-------13-13---------------------------------------------------------|
E|---------------------------------------------------------------------------|
Conceal don't feel, Don't let them know, Well now them know

[Chorus]
e|---------------------------------------------------------------------------|
B|---------------------------------------------------------------------------|
G|----12-13-------15-----------------12-13-----12-13----17-17-15-------------|
D|-15-------13-13-----18-15-15-15-15--------15-------13----------------------|
A|---------------------------------------------------------------------------|
E|---------------------------------------------------------------------------|
Let it go let it go, can't hold it back anymore, Let it go let it go

e|---------------------------------------------------------------------------|
B|-------13-13-14-13---------------16---------------16-16--------------------|
G|-13-15--------------15-13-15-13-----17-15---13-13-------17-13--------------|
D|---------------------------------------------------------------------------|
A|---------------------------------------------------------------------------|
E|---------------------------------------------------------------------------|
Turn away and slam the door, I don't care what they're going to say

e|---------------------------------------------------------------------------|
B|---------------------------------------------------------------------------|
G|-13-13-12------------------------------------------------------------------|
D|----------13-13------------------------------------------------------------|
A|-----------------------16-16-15-16-15-16-16-15-----------------------------|
E|--------------------16-------------------------16--------------------------|
Let the storm rage on, the cold never bothered me anyway

e|-16--16-----------------16-18---------18-16-15-16--------------------------|
B|--------17-----------16------16----16--------------------------------------|
G|-18--18-----------13------------15-----------------------------------------|
D|--------------13-----------------------------------------------------------|
A|-----------15--------------------------------------------------------------|
E|---------------------------------------------------------------------------|

[Verse]
e|---------------------------------------------------------------------------|
B|---------------------------------------------------------------------------|
G|---------------------------------------------------------------------------|
D|---------------------------------------------------------------------------|
A|-13-15-15-15-15-15----------18-18-16-16-15-13------------------------------|
E|-------------------16--16--------------------------------------------------|
It's funny how some distance, Makes everything seem small

e|---------------------------------------------------------------------------|
B|---------------------------------------------------------------------------|
G|------------------------------13-13----------------------------------------|
D|----------------13-15-13---13-------17-15-15~------------------------------|
A|-------15-15-15------------------------------------------------------------|
E|-18-16---------------------------------------------------------------------|
And the fears that once controlled me, Can't get to me at all

e|---------------------------------------------------------------------------|
B|---------------------------------------------------------------------------|
G|--------------------------------------12-13-15-----------------------------|
D|-------13-13-------13-15--13-15-13-15----------13--------------------------|
A|-13-13-------13-13---------------------------------------------------------|
E|---------------------------------------------------------------------------|
It's time to see what I can do, To test the limits and break through

e|---------------------------------------------------------------------------|
B|---------------------------------------------------------------------------|
G|-------------------------12-13~--------------------------------------------|
D|-------13-13----13--15~----------------------------------------------------|
A|-13-13-------13---13-------------------------------------------------------|
E|---------------------------------------------------------------------------|
No right no wrong no rules for me, I'm free

[Chorus]
e|---------------------------------------------------------------------------|
B|---------------------------------------------------------------------------|
G|----12-13-------15--13----------------12-13-15-12--------------------------|
D|-15-------13-13--------15-15-15-15-15--------------------------------------|
A|---------------------------------------------------------------------------|
E|---------------------------------------------------------------------------|
Let it go let it go, I am one with the wind and sky

e|---------------------------------------------------------------------------|
B|-------------------------13-13-14-13---------------------------------------|
G|----12-13---17-17-15--13-------------15-13-15-13---------------------------|
D|-15-------13---------------------------------------------------------------|
A|---------------------------------------------------------------------------|
E|---------------------------------------------------------------------------|
Let it go let it go, You'll never see me cry

e|---------------------------------------------------------------------------|
B|-16------------16----------------------------------------------------------|
G|----17-15---13----17-13---13-13--12----------------------------------------|
D|------------------------------------13-13~---------------------------------|
A|---------------------------------------------------------------------------|
E|---------------------------------------------------------------------------|
Here I stand, And here I'll stay, Let the storm rage on

[Bridge]
e|---------------------------------------------------------------------------|
B|---------------------------------------------------------------------------|
G|-15-16-17--18----------16-15-13--------------------------------------------|
D|--------------16-18-16----------16--14-16-18-15-16-18----------------------|
A|------------------------------------------------------14-15----------------|
E|---------------------------------------------------------------------------|

e|-21----------19-18-------------------------19-20-21----------19-18---------|
B|----19-21-19-------21-19-17-19-21-18-19-21----------19-21-19-------21-19---|
G|---------------------------------------------------------------------------|
D|---------------------------------------------------------------------------|
A|---------------------------------------------------------------------------|
E|---------------------------------------------------------------------------|

e|-------------------19-20-21~-----------------------------------------------|
B|-17-19-21-18-19-21---------------------------------------------------------|
G|---------------------------------------------------------------------------|
D|---------------------------------------------------------------------------|
A|---------------------------------------------------------------------------|
E|---------------------------------------------------------------------------|

[Verse]
e|---------------------------------------------------------------------------|
B|-----------------------12--12----------------------------------------------|
G|--------------------13--------13----13-------------------------------------|
D|----------13-15-16--------------16-----------------------------------------|
A|-16-15-16------------------------------------------------------------------|
E|---------------------------------------------------------------------------|
My power flurries through the air into the ground

e|---------------------------------------------------------------------------|
B|----------------------12--12-----------------------------------------------|
G|-------------------13--------13----16-16-13-16-13--------------------------|
D|----------13-15-16--------------16-----------------------------------------|
A|-16-15-16------------------------------------------------------------------|
E|---------------------------------------------------------------------------|
My soul is spiralling in frozen fractals all around

e|---------------------------------------------------------------------------|
B|------------------------14-13----------------------------------------------|
G|--------------12-13-15--------15-13-15-------------------------------------|
D|-13-12-13-15---------------------------------------------------------------|
A|---------------------------------------------------------------------------|
E|---------------------------------------------------------------------------|
And one thought crystallises like an icy blast

e|---------------------------------------------------------------------------|
B|-13-13-13-13---------------------13-14~------------------------------------|
G|-------------13-13---13-15-13-15-------------------------------------------|
D|---------------------------------------------------------------------------|
A|---------------------------------------------------------------------------|
E|---------------------------------------------------------------------------|
I'm never going back, The past is in the past

[Chorus]
e|---------------------------------------------------------------------------|
B|-14-14-14------------------------------------------------------------------|
G|----------------15--13-----------------12-13-15-12-------------------------|
D|----------13-13--------15-15--15-15-15-------------------------------------|
A|---------------------------------------------------------------------------|
E|---------------------------------------------------------------------------|
Let it go let it go, And I'll rise like the break of dawn

e|---------------------------------------------------------------------------|
B|---------------------------13-13-14-13---------------16--------------------|
G|----12-13-----17-17-15--13-------------15-13-15-13-------17-15-------------|
D|-15--------13--------------------------------------------------------------|
A|---------------------------------------------------------------------------|
E|---------------------------------------------------------------------------|
Let it go let it go, That perfect girl is gone, Here I stand

e|---------------------------------------------------------------------------|
B|-------16-13-13-------------------------16~~-------------------------------|
G|-13-13-----------18-17-15---13-13-12-13------------------------------------|
D|---------------------------------------------------------------------------|
A|-------------------------------------------- ----16-16-15-16-15-16-16-15---|
E|----------------------------------------------16-------------------------16|
In the light of day, Let the storm rage on, The cold never bothered me anyway


************************************

| ~  Vibrato  

************************************

            
            
Suggest correction
Creating personal tab
Creating personal tab
You can edit any tab online and save it as your Personal.

You can edit, replace or remove any tab part or add personal notes – all changes will be seen only by you.

Personal tabs can be accessed anytime from any device, even offline.
Learn more »
comments
print report bad tab
5 comments total. Showing first comments.
+1 reply
Poshskies 10 Aug 29, 2015 06:07 PM

This version is a lot of fun, love the combination of vocals and piano!

0 reply
jackdiablo12 10 Sep 09, 2015 05:54 AM

i really love this tab but i want to know the bps of it too because it differentiate between verses but overall great job sounds amazing

0 reply
emilypink418 10 Jan 19, 2017 07:41 PM

Capo on what?

guest
You may want to rate the tab now too:
select rating
Wanna post a correction for this tab? Suggest correction