Oops, an error
Loading. Please wait.

A Vava Inouva tab

version 1
version 1

Whole song

Interactive

by Idir
26,946 views 81 this week
1 commentread comment
1 2 3 4 5
x 7
add to favorites
×
Save as Personal and add changes to this tab that will be seen only by you. Learn more ›
×
You can save this tab as Personal to edit and correct it or add notes. All changes will be seen only by you. Learn more »
launch autoscroll
font size
0
reset
how to read this tab
guitar tuner
edit
Autoscroll
slow
fast
+/-
esc
set tempo
stop
Author
[Intro]
e|-7b--------------3s5---5s7---7b----------|-----5-5-5-3-2-0-0h2p0----------------------|
B|-----------------------------------------|------------------------3b------------------|
G|-----------------------------------------|--------------------------------------------|
D|-----------------------------------------|--------------------------------------------|
A|-----------------------------------------|--------------------------------------------|
E|-----------------------------------------|--------------------------------------------|

e|----3p2-3-------------3-3-3-2-0-3p2--0---|--------------------------------------------|
B|-3---------------------------------3-----|--------------------------------------------|
G|-----------------------------------------|--------------------------------------------|
D|-----------------------------------------|-----------2-0h2-------2-0h2----------------|
A|-----------------------------------------|---------2------------2---------------------|
E|-----------------------------------------|----0-3------------0-3----------------------|

e|--3----3-3-5-7--------5-3-2-0------------|-3-2-3----3-3-2-0--3p2----0-----------------|
B|------------------------------3-------3-3|-----------------------3--------------------|
G|-----------------------------------------|--------------------------------------------|
D|-----------------------------------------|--------------------------------------------|
A|-----------------------------------------|--------------------------------------------|
E|-----------------------------------------|--------------------------------------------|

e|--3----3-3-5-7-------5-3-2-0-------------|-3-2-3----3-3-2-0--3p2----0-----------------|
B|-----------------------------3--------3-3|-----------------------3--------------------|
G|-----------------------------------------|--------------------------------------------|
D|-----------------------------------------|--------------------------------------------|
A|-----------------------------------------|--------------------------------------------|
E|-----------------------------------------|--------------------------------------------|

[Refrain]
e|----------------3-5-3-2-0-----3-5-3-2-0--|---0h2-2-2-2-0----2-3-2-0-0--------0-2-3p2-0|
B|----3s5-5-5-5-5--------------------------|-3-------------3---------3-------3----------|
G|-----------------------------------------|--------------------------------------------|
D|-----------------------------------------|--------------------------------------------|
A|-----------------------------------------|--------------------------------------------|
E|-----------------------------------------|--------------------------------------------|

e|----------------3-5-3-2-0-----3-5-3-2-0--|---0h2-2-2-2-0----2-3-2-0-0--------0-2-3p2-0|
B|----3s5-5-5-5-5--------------------------|-3-------------3---------3-------3----------|
G|-----------------------------------------|--------------------------------------------|
D|-----------------------------------------|--------------------------------------------|
A|-----------------------------------------|--------------------------------------------|
E|-----------------------------------------|--------------------------------------------|

e|--3----3-3-5-7---------5-3-2-0-----------|-3-2-3----3-3-2-0--3p2----0-----------------|
B|-------------------------------3------3-3|-----------------------3--------------------|
G|-----------------------------------------|--------------------------------------------|
D|-----------------------------------------|--------------------------------------------|
A|-----------------------------------------|--------------------------------------------|
E|-----------------------------------------|--------------------------------------------|

[Verse]
1'17" and 2'37"
e|000--0-0---2-3---------3-3-3-3-2---------|-----2-2-0-0-----------------------2-3-2-0-0|
B|----------------------------------3------|--------------3p2h3----------3-3-3----------|
G|-----------------------------------------|--------------------------------------------|
D|-----------------------------------------|--------------------------------------------|
A|-----------------------------------------|--------------------------------------------|
E|-----------------------------------------|--------------------------------------------|

e|000--0-0---2-3---------3-3-3-3-2---------|-----2-2-0-0-----------------------2-3-2-0-0|
B|----------------------------------3------|--------------3p2h3----------3-3-3----------|
G|-----------------------------------------|--------------------------------------------|
D|-----------------------------------------|--------------------------------------------|
A|-----------------------------------------|--------------------------------------------|
E|-----------------------------------------|--------------------------------------------|

e|-----3-3-5-7----7-77-77-5-5-3-3----------|2-22-2-0-2------------3-2-0-3-2-0-0---------|
B|-----------------------------------------|--------------------------------------------|
G|-----------------------------------------|--------------------------------------------|
D|-----------------------------------------|--------------------------------------------|
A|-----------------------------------------|--------------------------------------------|
E|-----------------------------------------|--------------------------------------------|

e|-2-2-2-5-3-2-2--------2-22-2-0-2---------|----2-2-2-5-3-2-2-----3-2-0-3-2-0-0---------|
B|-----------------------------------------|--------------------------------------------|
G|-----------------------------------------|--------------------------------------------|
D|-----------------------------------------|--------------------------------------------|
A|-----------------------------------------|--------------------------------------------|
E|-----------------------------------------|--------------------------------------------|

[Refrain]
e|----------------3-5-3-2-0-----3-5-3-2-0--|---0h2-2-2-2-0----2-3-2-0-0--------0-2-3p2-0|
B|----3s5-5-5-5-5--------------------------|-3-------------3---------3-------3----------|
G|-----------------------------------------|--------------------------------------------|
D|-----------------------------------------|--------------------------------------------|
A|-----------------------------------------|--------------------------------------------|
E|-----------------------------------------|--------------------------------------------|

e|----------------3-5-3-2-0-----3-5-3-2-0--|---0h2-2-2-2-0----2-3-2-0-0--------0-2-3p2-0|
B|----3s5-5-5-5-5--------------------------|-3-------------3---------3-------3----------|
G|-----------------------------------------|--------------------------------------------|
D|-----------------------------------------|--------------------------------------------|
A|-----------------------------------------|--------------------------------------------|
E|-----------------------------------------|--------------------------------------------|

e|--3----3-3-5-7---------5-3-2-0-----------|-3-2-3----3-3-2-0--3p2----0-----------------|
B|-------------------------------3------3-3|-----------------------3--------------------|
G|-----------------------------------------|--------------------------------------------|
D|-----------------------------------------|--------------------------------------------|
A|-----------------------------------------|--------------------------------------------|
E|-----------------------------------------|--------------------------------------------|

[Verse]
e|000--0-0---2-3---------3-3-3-3-2---------|-----2-2-0-0-----------------------2-3-2-0-0|
B|----------------------------------3------|--------------3p2h3----------3-3-3----------|
G|-----------------------------------------|--------------------------------------------|
D|-----------------------------------------|--------------------------------------------|
A|-----------------------------------------|--------------------------------------------|
E|-----------------------------------------|--------------------------------------------|

e|000--0-0---2-3---------3-3-3-3-2---------|-----2-2-0-0-----------------------2-3-2-0-0|
B|----------------------------------3------|--------------3p2h3----------3-3-3----------|
G|-----------------------------------------|--------------------------------------------|
D|-----------------------------------------|--------------------------------------------|
A|-----------------------------------------|--------------------------------------------|
E|-----------------------------------------|--------------------------------------------|

e|-----3-3-5-7----7-77-77-5-5-3-3----------|2-22-2-0-2------------3-2-0-3-2-0-0---------|
B|-----------------------------------------|--------------------------------------------|
G|-----------------------------------------|--------------------------------------------|
D|-----------------------------------------|--------------------------------------------|
A|-----------------------------------------|--------------------------------------------|
E|-----------------------------------------|--------------------------------------------|

e|-2-2-2-5-3-2-2--------2-22-2-0-2---------|----2-2-2-5-3-2-2-----3-2-0-3-2-0-0---------|
B|-----------------------------------------|--------------------------------------------|
G|-----------------------------------------|--------------------------------------------|
D|-----------------------------------------|--------------------------------------------|
A|-----------------------------------------|--------------------------------------------|
E|-----------------------------------------|--------------------------------------------|

[Refrain]
e|----------------3-5-3-2-0-----3-5-3-2-0--|---0h2-2-2-2-0----2-3-2-0-0--------0-2-3p2-0|
B|----3s5-5-5-5-5--------------------------|-3-------------3---------3-------3----------|
G|-----------------------------------------|--------------------------------------------|
D|-----------------------------------------|--------------------------------------------|
A|-----------------------------------------|--------------------------------------------|
E|-----------------------------------------|--------------------------------------------|

e|----------------3-5-3-2-0-----3-5-3-2-0--|---0h2-2-2-2-0----2-3-2-0-0--------0-2-3p2-0|
B|----3s5-5-5-5-5--------------------------|-3-------------3---------3-------3----------|
G|-----------------------------------------|--------------------------------------------|
D|-----------------------------------------|--------------------------------------------|
A|-----------------------------------------|--------------------------------------------|
E|-----------------------------------------|--------------------------------------------|

e|--3----3-3-5-7---------5-3-2-0-----------|-3-2-3----3-3-2-0--3p2----0-----------------|
B|-------------------------------3------3-3|-----------------------3--------------------|
G|-----------------------------------------|--------------------------------------------|
D|-----------------------------------------|--------------------------------------------|
A|-----------------------------------------|--------------------------------------------|
E|-----------------------------------------|--------------------------------------------|

[Outro]
e|--3----3-3-5-7---------5-3-2-0-----------|-3-2-3----3-3-2-0--3p2----0---------------|
B|-------------------------------3------3-3|-----------------------3------------------|
G|-----------------------------------------|------------------------------------------| 
D|-----------------------------------------|------------------------------------------|
A|-----------------------------------------|------------------------------------------|
E|-----------------------------------------|------------------------------------------|
x3 and fade.

************************************

| h  Hammer-on
| p  Pull-off
| b  Bend

************************************

            
            
Suggest correction
Creating personal tab
Creating personal tab
You can edit any tab online and save it as your Personal.

You can edit, replace or remove any tab part or add personal notes – all changes will be seen only by you.

Personal tabs can be accessed anytime from any device, even offline.
Learn more »
comments
print report bad tab
1 comment total.
0 reply
doktorix 92 Feb 02, 2011 05:23 AM

e|----3p2-3-------------3-3-3-2-0-3p2--0---|--------------------------------------------|
B|-3---------------------------------3-----|--------------------------------------------|
G|-----------------------------------------|--------------------------------------------|
D|-----------------------------------------|-----------2-0h2----------2-0h2-------------|
A|-----------------------------------------|---------2--------------2-------------------|
E|-----------------------------------------|-----0-3------------0-3---------------------|

Instead of the second line:

e|----3p2-3-------------3-3-3-2-0-3p2--0---|--------------------------------------------|
B|-3---------------------------------3-----|----------3-2p3---------3-3p2---------------|
G|-----------------------------------------|--------4-------------4---------------------|
D|-----------------------------------------|-------4-------------4----------------------|
A|-----------------------------------------|-----2--------------2-----------------------|
E|-----------------------------------------|--------------------------------------------|

Got it fixed but a bit too late :)

guest
You may want to rate the tab now too:
select rating
Wanna post a correction for this tab? Suggest correction