Oops, an error
Loading. Please wait.

Blue Bird tab

version 1
version 1

Whole song

Interactive

150,998 views 318 this week
2 commentsread comments
1 2 3 4 5
x 29
add to favorites
×
Save as Personal and add changes to this tab that will be seen only by you. Learn more ›
×
You can save this tab as Personal to edit and correct it or add notes. All changes will be seen only by you. Learn more »
launch autoscroll
font size
0
reset
how to read this tab
guitar tuner
edit
Autoscroll
slow
fast
+/-
esc
set tempo
stop
Author
-------------------------------------------------------------------------------
                             BLUE BIRD - Ikimonogakari - TV SIZE
-------------------------------------------------------------------------------
Tabbed by: Iku
Email: ikumew@gmail.com

Tuning: Standard

e|-----2---4---5---4---2-------------2---4---5---5---7---5---7---9-----------|
B|--2----------------------------2-------------------------------------------|
G|---------------------------------------------------------------------------|
D|---------------------------------------------------------------------------|
A|---------------------------------------------------------------------------|
E|---------------------------------------------------------------------------|

   |      Habatai-ta-ra   |      |        modorenai to ite          |    

e|-----2---4---5---4---2----------2---9---7---2---9---7---0---0---2---2------|
B|--2------------------------------------------------------------------------|
G|---------------------------------------------------------------------------|
D|---------------------------------------------------------------------------|
A|---------------------------------------------------------------------------|
E|---------------------------------------------------------------------------|

   |   mezashita no wa    |       |      aoi aoi ano sora               |


[Solo]

e|----5---4---7---9---7---5----5---4---0--0--0-h-2--0--0--2---2--------------|
B|---------------------------------------------------------------------------|
G|---------------------------------------------------------------------------|
D|---------------------------------------------------------------------------|
A|---------------------------------------------------------------------------|
E|---------------------------------------------------------------------------|


[Verse 1]

e|------2---3---4-------4---3---2---0---2---------------------------------0--|
B|--2---------------2--------------------------0---2-------2--2--2---3-------|
G|-----------------------------------------2---------------------------------|
D|---------------------------------------------------------------------------|
A|---------------------------------------------------------------------------|
E|---------------------------------------------------------------------------|
         
   |        kanashimi wo mada oboerarezu             |  | setsunasawa                   

e|--2---0---0--0--0---2---4---5---4-------------5---4---5--------5---4---2--0|
B|------------------------------------------2---------------2----------------|
G|---------------------------------------------------------------------------|
D|---------------------------------------------------------------------------|
A|---------------------------------------------------------------------------|
E|---------------------------------------------------------------------------|

     ima tsukami hajimeta           |   |     anata e to idaku kono 

e|---2-------------------------------5---4---2---0---0---2---2---------------|
B|-----------0---2----2--2--2---3--------------------------------------------|
G|-------2-------------------------------------------------------------------|
D|---------------------------------------------------------------------------|
A|---------------------------------------------------------------------------|
E|---------------------------------------------------------------------------|

     kanjou mo    | |          ima kotoba ni kawa-ateku         |


[Bridge]

e|---2--2---4---5-----5--4--5---4----4--4---5---7---7---5---4---2-----2---5--|
B|---------------------------------------------------------------------------|
G|---------------------------------------------------------------------------|
D|---------------------------------------------------------------------------|
A|---------------------------------------------------------------------------|
E|---------------------------------------------------------------------------|

  | michi naru               sekai no yume kara mezamete         | |   kono 

e|---7---9-----2---5---7---9-----9---12---10---9~----------------------------|
B|---------------------------------------------------------------------------|
G|---------------------------------------------------------------------------|
D|---------------------------------------------------------------------------|
A|---------------------------------------------------------------------------|
E|---------------------------------------------------------------------------|

          hane wo hiroge tobi datsu                 |


[Chorus]

e|-----2---4---5---4---2-------------2---4---5---5---7---5---7---9-----------|
B|--2----------------------------2-------------------------------------------|
G|---------------------------------------------------------------------------|
D|---------------------------------------------------------------------------|
A|---------------------------------------------------------------------------|
E|---------------------------------------------------------------------------|

   |      Habatai-ta-ra   |      |        modorenai to ite          | 

e|-----2---4---5---4---2----------2---9---7---2---9---5---0---0---2---2------|
B|--2------------------------------------------------------------------------|
G|---------------------------------------------------------------------------|
D|---------------------------------------------------------------------------|
A|---------------------------------------------------------------------------|
E|---------------------------------------------------------------------------|

   |   mezashita no wa    |       |      aoi aoi ano sora               |

e|-----2---4---5---4---2-------------2---4---5---5---7---5---7---9-----------|
B|--2----------------------------2-------------------------------------------|
G|---------------------------------------------------------------------------|
D|---------------------------------------------------------------------------|
A|---------------------------------------------------------------------------|
E|---------------------------------------------------------------------------|

  |   tsukinoketara     |   |          mitsukaru doushite             |

e|-----2---4---5---4---2----------2---9---7---2---9---7---0---0---2---2------|
B|--2------------------------------------------------------------------------|
G|---------------------------------------------------------------------------|
D|---------------------------------------------------------------------------|
A|---------------------------------------------------------------------------|
E|---------------------------------------------------------------------------|

    | furikuru hodo |            |       aoi aoi ano sora       |
  
e|----2---9---7---2---9---5---0---0---2---2-------------2---9---7---2---9--7-|
B|---------------------------------------------------------------------------|
G|---------------------------------------------------------------------------|
D|---------------------------------------------------------------------------|
A|---------------------------------------------------------------------------|
E|---------------------------------------------------------------------------|

   |       aoi aoi ano sora     |                    |   aoi    aoi     

e|----2---0---0---2---2------------------------------------------------------|
B|---------------------------------------------------------------------------|
G|---------------------------------------------------------------------------|
D|---------------------------------------------------------------------------|
A|---------------------------------------------------------------------------|
E|---------------------------------------------------------------------------|

  |   ano sora~       |

e|--5---4---7---9---7---5----5---4---0--0--0-h-2--0--0--2---4----4----5---5~-|
B|---------------------------------------------------------------------------|
G|---------------------------------------------------------------------------|
D|---------------------------------------------------------------------------|
A|---------------------------------------------------------------------------|
E|---------------------------------------------------------------------------|

************************************

| h  Hammer-on
| ~  Vibrato

************************************

            
            
Suggest correction
Creating personal tab
Creating personal tab
You can edit any tab online and save it as your Personal.

You can edit, replace or remove any tab part or add personal notes – all changes will be seen only by you.

Personal tabs can be accessed anytime from any device, even offline.
Learn more »
comments
print report bad tab
2 comments total.
0 reply
togtja 10 Apr 23, 2014 06:27 AM, edited at 10:28 am

Good Tab, How i hear it, I would recoment droppig the dubble 5 at thee|-----2---4---5---4---2-------------2---4---5---5---7---5---7---9--------|B|--2----------------------------2----------------------------------------| Like this: e|-----2---4---5---4---2-------------2---4---5---7---5---7---9--------|B|--2----------------------------2------------------------------------|I think it sounds better

0 reply
togtja 10 Apr 23, 2014 06:30 AM

Ops that seems like it got a bit glitched (I can't edit the comment either)
I would do this instead of the old one

e|-----2---4---5---4---2-------------2---4---5------7---5---7---9--------|
B|--2----------------------------2---------------------------------------|

guest
You may want to rate the tab now too:
select rating
Wanna post a correction for this tab? Suggest correction