Oops, an error
Loading. Please wait.

Come Closer tab

by Iklan
1,683 views 1 this week
1 commentread comment
1 2 3 4 5
2 more votes to show rating
add to favorites
×
Save as Personal and add changes to this tab that will be seen only by you. Learn more ›
×
You can save this tab as Personal to edit and correct it or add notes. All changes will be seen only by you. Learn more »
launch autoscroll
font size
0
reset
how to read this tab
guitar tuner
edit
Autoscroll
slow
fast
+/-
esc
set tempo
stop
Author
-------------------------------------------------------------------------------
                           COME CLOSER - IKlan
-------------------------------------------------------------------------------
Tabbed by: Jomar Ebuenga
Email: th0inkz@yahoo.com

plz rate =Þ

Tuning: Standard

Intro:

e|---------12----12--------12----12--------12----12--------12----12----------|
B|---13--13----13----12--12----12----13--13----13----13----------------------|
G|-----12----12----12--12----12----12--14----14----14----14----14------------|
D|-----------------------------------------------------15----15----15--------|
A|---------------------------------------------------------------------------|
E|---------------------------------------------------------------------------|

Come closer, come closer, come closer to me now..

e|---------12----12--------12----12--------12----12--------12----12----------|
B|---13--13----13----12--12----12----13--13----13----13----------------------|
G|-----12----12----12--12----12----12--14----14----14----14----14------------|
D|-----------------------------------------------------15----15----15--------|
A|---------------------------------------------------------------------------|
E|---------------------------------------------------------------------------|

Chorus:

Ahoo.. what you do to me..

e|---1---3---0------1---3---------------------------------------------------------|
B|---1---3---1------1---3---------------------------------------------------------|
G|---2---0---2------2---0---------------------------------------------------------|
D|---3---0---2------3---0---------------------------------------------------------|
A|---3---2---0------3---2---------------------------------------------------------|
E|---1---3----------1---3---------------------------------------------------------|

e|---------------------------------------------------------------------------|
B|---17^18v17-13-13/15-17-13-------13----------------------------------------|
G|---------------------------12/14-------------------------------------------|
D|---------------------------------------------------------------------------|
A|---------------------------------------------------------------------------|
E|---------------------------------------------------------------------------|

Stanza:

I can feel you in the air..

e|---0---3---0---1---1-------------------------------------------------------|
B|---1---3---1---1---3-------------------------------------------------------|
G|---2---0---2---2---2-------------------------------------------------------|
D|---2---0---2---3---0-------------------------------------------------------|
A|---0---2---0---3-----------------------------------------------------------|
E|-------3-------1-----------------------------------------------------------|

Refrain:

Your smile is my whole world..

e|---------12----12--------12----12--------12----12--------12----12----------|
B|---13--13----13----12--12----12----13--13----13----13----------------------|
G|-----12----12----12--12----12----12--14----14----14----14----14------------|
D|-----------------------------------------------------15----15----15--------|
A|---------------------------------------------------------------------------|
E|---------------------------------------------------------------------------|

(Chorus)

Adlib:

e|-----------------------------------------------------------------------------|
B|-------------------8--6p5----------------------------------------------------|
G|-------------5-7-5--------7--7^9-9v7-4--4/5-----5-5-----5-7-9-9^10v9-7-7-5h7-|
D|---------5h7--------------------------------5h7------5/7---------------------|
A|---3-5-7---------------------------------------------------------------------|
E|-----------------------------------------------------------------------------|

e|------------15-15-13-13--15^17v15-13-12-13---------------------------------|
B|------15/17--------------------------------15^17-17v15-13-15---------------|
G|---12--------------------------------------------------------14~-----------|
D|---------------------------------------------------------------------------|
A|---------------------------------------------------------------------------|
E|---------------------------------------------------------------------------|

e|--------------------------------------------------------------------------|
B|---------13-15-17-17^18v17-15-15--13-12-----------------------------------|
G|---12/14--------------------------------14-12-12/14-----------------------|
D|--------------------------------------------------------------------------|
A|--------------------------------------------------------------------------|
E|--------------------------------------------------------------------------|


(Stanza)
(Refrain)
(Chorus)


| /  slide up
| \  slide down
| h  hammer-on
| p  pull-off
| ~  vibrato
| ^  bend up
| v  bend down / release
===============================================================================

            
            
Suggest correction
Creating personal tab
Creating personal tab
You can edit any tab online and save it as your Personal.

You can edit, replace or remove any tab part or add personal notes – all changes will be seen only by you.

Personal tabs can be accessed anytime from any device, even offline.
Learn more »
Give kudos to tab author, rate the tab!
1 2 3 4 5
comments
print report bad tab
1 comment total.
0 reply
blackkite 56 Jul 20, 2009 05:18 PM

Great Job!

guest
You may want to rate the tab now too:
select rating
Wanna post a correction for this tab? Suggest correction