Oops, an error
Loading. Please wait.

Ntf solo tab

version 2
version 2

Whole song

Interactive

2,227 views 1 this week
1 commentread comment
1 2 3 4 5
2 more votes to show rating
add to favorites
×
Save as Personal and add changes to this tab that will be seen only by you. Learn more ›
×
You can save this tab as Personal to edit and correct it or add notes. All changes will be seen only by you. Learn more »
launch autoscroll
font size
0
reset
how to read this tab
guitar tuner
edit
Autoscroll
slow
fast
+/-
esc
set tempo
stop
Author
----------------------------------------------------------------------------
                             Ntf - Illscarlett
----------------------------------------------------------------------------
Tabbed by: cole
Email: cole_halenda@hotmail.com

ok this is my very first tab and no one had tabbed this solo so i thought I would.  
I'm 99% sure of it and it's a pretty simple solo but if anything's wrong let me know so i can 
fix it... oh and sorry about the solo solo in the title I'm getting used 2 this

Tuning:Standard

e|------------------------/11----------------------------------------------|
B|----------------/9-----------13--11~------------11-13--11----11----------|
G|--------4h5p4--------------------------10-12-13-----------13-------------|
D|--6--8-------5-----------------------------------------------------------|
A|-------------------------------------------------------------------------|
E|-------------------------------------------------------------------------|

e|-------6-----------------6-----------------------------------------------|
B|--9-11-----11-9-----9-11----11-9-----99999-11-8~-------------------------|
G|----------------10---------------10--------------------------------------|
D|-------------------------------------------------------------------------|
A|-------------------------------------------------------------------------|
E|-------------------------------------------------------------------------|

e|--15h16p15p13------------------------------------------------------------|
B|--------------16-14---------------------13-------------------------------|
G|---------------------17p15p13-15-13--15----15-13-12~-12-13-15-15b-13-12--|
D|-------------------------------------------------------------------------|
A|-------------------------------------------------------------------------|
E|-------------------------------------------------------------------------|

e|-------------------------------------------------------------------------|
B|-------------------------------------------11----------------------------|
G|--13--13-15-13--12-13--13-15-13--12--10-13----13-------------------------|
D|-------------------------------------------------------------------------|
A|-------------------------------------------------------------------------|
E|-------------------------------------------------------------------------|

            
            
Suggest correction
Creating personal tab
Creating personal tab
You can edit any tab online and save it as your Personal.

You can edit, replace or remove any tab part or add personal notes – all changes will be seen only by you.

Personal tabs can be accessed anytime from any device, even offline.
Learn more »
Give kudos to tab author, rate the tab!
1 2 3 4 5
comments
print report bad tab
1 comment total.
0 reply
jeff541 90 Nov 13, 2007 11:36 AM

seems good to me i think

guest
You may want to rate the tab now too:
select rating
Wanna post a correction for this tab? Suggest correction