Oops, an error
Loading. Please wait.

Levitate solo tab

598 views 9 this week
3 commentsread comments
1 2 3 4 5
x 4
add to favorites
×
Save as Personal and add changes to this tab that will be seen only by you. Learn more ›
×
You can save this tab as Personal to edit and correct it or add notes. All changes will be seen only by you. Learn more »
launch autoscroll
font size
0
reset
how to read this tab
guitar tuner
edit
Autoscroll
slow
fast
+/-
esc
set tempo
stop
Author
Difficulty
About this tab version
This is the riff played by Wayne, Imagine Dragons' guitarist, in the last part of the song (from 2:48 to 3:12). Was this info helpful? Yes No
[2:48 - 3:12]

e|---16-16-16-14------11-11-11-9------4-4-4-----------------|
B|---------------16\-------------11\--------7-4--4----------|
G|--------------------------------------------------6-4-----|
D|------------------------------------------------------6---| x2
A|----------------------------------------------------------|
E|----------------------------------------------------------|

e|---16-16-16-14-19\--11-11-11-9-14\--4-4-4-----------------|
B|------------------------------------------7-4--4----------|
G|--------------------------------------------------6-4-----|
D|------------------------------------------------------6---|
A|----------------------------------------------------------|
E|----------------------------------------------------------|

e|---16-16-16-14------11-11-11-9------4-4-4-----------------|
B|---------------16\-------------11\--------7-4--4----------|
G|--------------------------------------------------6-4-----|
D|------------------------------------------------------6---|
A|----------------------------------------------------------|
E|----------------------------------------------------------|

\ = slide down

            
            
Suggest correction
Creating personal tab
Creating personal tab
You can edit any tab online and save it as your Personal.

You can edit, replace or remove any tab part or add personal notes – all changes will be seen only by you.

Personal tabs can be accessed anytime from any device, even offline.
Learn more »
comments
print report bad tab
3 comments total.
0 reply
timhamacher98 10 Jan 31, 2017 11:20 AM

Hey, everything fine but he ends on the Ab on the D-string, not on the Gb. :)

0 reply
marc240 306 Jan 31, 2017 09:25 PM, edited on February 1 2017, 02:26 am

you're right omg, thank you for pointing that out! I didn't even notice that I ended it with the wrong note. I'm going to change it right now

0 reply
timhamacher98 10 Feb 01, 2017 03:50 PM

Haha i just wondered why the last note sucked so hard while playig this and i was like: hmmmm something must be wrong here haha. And no problem dude ;D

guest
You may want to rate the tab now too:
select rating
Wanna post a correction for this tab? Suggest correction