Oops, an error
Loading. Please wait.
We have an official On Top Of The World tab made by UG professional guitarists. Check out the tab »
×
3,324 views 3 this week
2 commentsread comments
1 2 3 4 5
1 last vote to show rating
add to favorites
×
Save as Personal and add changes to this tab that will be seen only by you. Learn more ›
×
You can save this tab as Personal to edit and correct it or add notes. All changes will be seen only by you. Learn more »
launch autoscroll
font size
0
reset
how to read this tab
guitar tuner
edit
Autoscroll
slow
fast
+/-
esc
set tempo
stop
-----------------------------------------------------------------------------
                   On Top Of The World - Imagine Dragons
-----------------------------------------------------------------------------

Tabbed by: Laxev
Tunging: Standard

Capo 5

Tab: (Repeat throughout song)
e|--3-----0-----------------------|   e|--------------------|
B|-----3-----1--0--1--0-----0-----|   B|--0--------1--0-----|
G|-----------------------2-----0--|   G|-----2--0--------0--|
D|--------------------------------|   D|--------------------|
A|--------------------------------|   A|--------------------|
E|--------------------------------|x3 E|--------------------|

Lyrics:
If you love somebody
Better tell them while they’re here ’cause
They just may run away from you

You’ll never know what went well
Then again it just depends on
How long of time is left for you

I’ve had the highest mountains
I’ve had the deepest rivers
You can have it all but life keeps moving

Now take it in but don’t look down

‘Cause I’m on top of the world, ‘ay
I’m on top of the world, ‘ay
Waiting on this for a while now
Paying my dues to the dirt
I’ve been waiting to smile, ‘ay
Been holding it in for a while, ‘ay
Take it with me if I can
Been dreaming of this since a child
I’m on top of the world.

I’ve tried to cut these corners
Try to take the easy way out
I kept on falling short of something

I coulda gave up then but
Then again I couldn’t have ’cause
I’ve traveled all this way for something

Now take it in but don’t look down

‘Cause I’m on top of the world, ‘ay
I’m on top of the world, ‘ay
Waiting on this for a while now
Paying my dues to the dirt
I’ve been waiting to smile, ‘ay
Been holding it in for a while, ‘ay
Take it with me if I can
Been dreaming of this since a child
I’m on top of the world.

‘Cause I’m on top of the world, ‘ay
I’m on top of the world, ‘ay
Waiting on this for a while now
Paying my dues to the dirt
I’ve been waiting to smile, ‘ay
Been holding it in for a while, ‘ay
Take it with me if I can
Been dreaming of this since a child

And I know it’s hard when you’re falling down
And it’s a long way up when you hit the ground
Get up now, get up, get up now.

And I know it’s hard when you’re falling down
And it’s a long way up when you hit the ground
Get up now, get up, get up now.

‘Cause I’m on top of the world, ‘ay
I’m on top of the world, ‘ay
Waiting on this for a while now
Paying my dues to the dirt
I’ve been waiting to smile, ‘ay
Been holding it in for a while, ‘ay
Take it with me if I can
Been dreaming of this since a child
I’m on top of the world.

            
            
Suggest correction
Creating personal tab
Creating personal tab
You can edit any tab online and save it as your Personal.

You can edit, replace or remove any tab part or add personal notes – all changes will be seen only by you.

Personal tabs can be accessed anytime from any device, even offline.
Learn more »
Give kudos to tab author, rate the tab!
1 2 3 4 5
comments
print report bad tab
2 comments total.
+2 reply
Shwax 256 Apr 07, 2013 07:45 PM

The intro is wrong. That first 1 on the B-string should be open. Something like this:

e|--3-----0---------------------|
B|-----3-----0--0h1p0-----0-----|
G|---------------------2-----0--|
D|------------------------------|
A|------------------------------|
E|------------------------------|

0 reply
sabeski 10 Jun 12, 2014 08:48 AM

The intro should be something like this

e|--3-----0---------------------|
B|-----3-----3--3/5\3--0--------|
G|------------------------2--0--|
D|------------------------------|
A|------------------------------|
E|------------------------------|

guest
You may want to rate the tab now too:
select rating
Wanna post a correction for this tab? Suggest correction