Oops, an error
Loading. Please wait.

Tokyo tab

2,377 views 3 this week
no commentswrite comment
1 2 3 4 5
x 3
add to favorites
×
Save as Personal and add changes to this tab that will be seen only by you. Learn more ›
×
You can save this tab as Personal to edit and correct it or add notes. All changes will be seen only by you. Learn more »
launch autoscroll
font size
0
reset
how to read this tab
guitar tuner
edit
Autoscroll
slow
fast
+/-
esc
set tempo
stop
Author
Difficulty
INTRO

Electric 1

E|---------------------------------------------|
B|-----------------------8----------8----------|
G|-979797-57-979797-57-9--9797-57-9---979r7\55-|
D|---------------------------------------------|
A|---------------------------------------------|
E|---------------------------------------------|


Synth

E|-------------------    ---15--------------15----------------|
B|-171517151715---15-    -17--17151715----17---171517r15------|
G|--------------17---    --------------17----------------1717-|
D|------------------- x2 -------------------------------------|
A|-------------------    -------------------------------------|
E|-------------------    -------------------------------------|

Electric 2

E|------------|
B|------------|
G|-------5----|
D|-3--7--5--3-|
A|-3--7--3--3-|
E|-1--5-----1-|


VERSE (play the intro)

NO PRE-CHORUS UNTIL LATER

CHORUS

Electric 1
(play with some mutes, listen to the song)
E|-12-|
B|-13-|
G|-12-|
D|----|
A|----|
E|----|

Electric 2

E|---------------------------|
B|---------------------------|
G|-5-----------------5-------|
D|-5--7--3--3--5--7--5--3--5-|
A|-3--7--3--3--5--7--3--3--5-|
E|----5--1--1--3--5-----1--3-|

VERSE

PRE-CHORUS

Electric 1

E|-------------|
B|-----5-5h8h8-|
G|-5-7---------|
D|-------------|
A|-------------|
E|-------------|

CHORUS

SOLO

Electric 1

E|----------------------------------------------3-------|
B|-10h13r10\8-8h10r8\5-5h8r5\3---3-5-3------------5-----|
G|-----------------------------5-------5-2--2-5-----5-2-|
D|------------------------------------------------------|
A|------------------------------------------------------|
E|------------------------------------------------------|

--8--8--8-------------------------------------------------------|
--10-10-10-5-3----------------------------/1010-8------------10-|
--9--9--9------5-2h5r2h5r2-2h5h--2h5h5-2h5--------9/12-9-7-9----|
----------------------------------------------------------------|
----------------------------------------------------------------|
----------------------------------------------------------------|

POST SOLO

Synth

E|-------------------|
B|-17-15-13-15-13-10-|
G|-------------------|
D|-------------------|
A|-------------------|
E|-------------------|

Electric 1

E|------------   ----------------|
B|------------   ----------------|
G|-525252---2-   ---2-5-2--2-5-2-|
D|--------5---x2 --5------5------|
A|------------   ----------------|
E|------------   ----------------|

PRE-CHORUS

Electric 1
(repeatedly pick this)
E|-----|
B|-----|
G|-4---|
D|---5-|
A|-----|
E|-----|

CHORUS

END WITH CHORUS PLAYING WITH INTRO

            
            
Suggest correction
Creating personal tab
Creating personal tab
You can edit any tab online and save it as your Personal.

You can edit, replace or remove any tab part or add personal notes – all changes will be seen only by you.

Personal tabs can be accessed anytime from any device, even offline.
Learn more »
Give kudos to tab author, rate the tab!
1 2 3 4 5
comments
print report bad tab
guest
You may want to rate the tab now too:
select rating
Wanna post a correction for this tab? Suggest correction