Oops, an error
Loading. Please wait.
We have an official Warriors tab made by UG professional guitarists. Check out the tab »
×
82,903 views 222 this week
11 commentsread comments
1 2 3 4 5
x 45
add to favorites
×
Save as Personal and add changes to this tab that will be seen only by you. Learn more ›
×
You can save this tab as Personal to edit and correct it or add notes. All changes will be seen only by you. Learn more »
launch autoscroll
font size
0
reset
how to read this tab
guitar tuner
backing track
0:00
0:00
edit
Autoscroll
slow
fast
+/-
esc
set tempo
stop
Author
Difficulty
intermediate
-------------------------------------------------------------------------------
                             Imagine Dragons(Collaboration with Riot Games) - Warriors
-------------------------------------------------------------------------------
Tabbed by: Nameless742
E-mail: Scotcoxy2204@yahoo.co.uk

Tuning: Standard

So this song was made with the World Championship 2014 for League of Legends in mind. 
Regardless of the game,
let's just take time to appreciate this simple yet bad-ass solo.


[Solo]

e|---------------------------------------------------------------------------|
B|---------------------------------------------------------------------------|
G|---------------------------------------------------------------------------|
D|--7b-(8)(8)-(8b9r7)h5-----7b-7~---xx----7b-(8)(8)-(8b9r7)h5-----7b-7v\-----|
A|----------------------7-----------xx------------------------7--------------|
E|---------------------------------------------------------------------------|

e|--------------------------------------------12-11-12s15-14-12--------------------------------|
B|-----------------------------8-7-8-12-11-12-------------------13-12----12-13-16-13-12-12-----|
G|-----------------------9-8-9----------------------------------------14----------------14b----|
D|-----------------9-8-9-----------------------------------------------------------------------|
A|--7-6-7--10-9-10-----------------------------------------------------------------------------|
E|---------------------------------------------------------------------------------------------|

e|---------------------------------------------------------------------------|
B|--------------------------13t-16t-17v--------------------------------------|
G|--14t-16t---------14t-16t--------------------------------------------------|
D|----------16t-17t----------------------------------------------------------|
A|---------------------------------------------------------------------------|
E|---------------------------------------------------------------------------|


If you have any questions or think something needs fixed please ask.
Thanks already to the couple of corrections below, helping make this tab perfect.



************************************

| x    Dead note
| (n)  Ghost note
| r    Release
| t    Tapping
| b    Bend
| ~    Vibrato
| s    Slide

************************************

            
            
Suggest correction
Creating personal tab
Creating personal tab
You can edit any tab online and save it as your Personal.

You can edit, replace or remove any tab part or add personal notes – all changes will be seen only by you.

Personal tabs can be accessed anytime from any device, even offline.
Learn more »
comments
print report bad tab
11 comments total. Showing first comments.
+3 reply
masterjojo29 10 Sep 19, 2014 08:34 AM

For the end of the solo it is more :

e|---------------------------------------------------------------------------|
B|--------------------------13t-16t-17v--------------------------------------|
G|--14t-16t---------14t-16t--------------------------------------------------|
D|----------16t-17t----------------------------------------------------------|
A|---------------------------------------------------------------------------|
E|---------------------------------------------------------------------------|

+1 reply
stijnmiltenburg 40 Sep 19, 2014 08:59 AM

I played the solo and I figured that part out by meself, so thank you for posting this so I don't have to.

0 reply
Nameless742 122 Sep 19, 2014 10:17 AM

Thanks for the feedback. I'll give it a listen when I get home from work.

guest
You may want to rate the tab now too:
select rating
Wanna post a correction for this tab? Suggest correction