Oops, an error
Loading. Please wait.

Whatever It Takes tab

version 1
version 1

Whole song

2,893 views 153 this week
1 commentread comment
1 2 3 4 5
x 5
add to favorites
×
Save as Personal and add changes to this tab that will be seen only by you. Learn more ›
×
You can save this tab as Personal to edit and correct it or add notes. All changes will be seen only by you. Learn more »
launch autoscroll
font size
0
reset
how to read this tab
guitar tuner
edit
Autoscroll
slow
fast
+/-
esc
set tempo
stop
-------------------------------------------------------------------------------
                     Whatever It Takes - Imagine Dragons
-------------------------------------------------------------------------------
Tabbed by: Asa Wentworth. 
Email me: asawentworth@yahoo.com


[Intro]
0:00
e|----------------------------------------------------------------------------------|
B|---11-11-11-11-11-11-11-11--11b-11b-11b-11b-11b-11b-11b-11br----------------------|
G|----------------------------------------------------------------------------------|
D|----------------------------------------------------------------------------------| (x4)
A|----------------------------------------------------------------------------------|
E|----------------------------------------------------------------------------------|

[Chorus]
0:43
"...takes!
e|----------------------------------------------------------------------------------|
B|----------------------------------------------------------------------------------|
G|----------------------------------------------------------------------------------|
D|---4-4-4-4-4-4-4-4--11-11-11-11-11-11-11-11--6-6-6-6-6-6-6-6--8-8-8-8-8-8-8-8-----|
A|---4-4-4-4-4-4-4-4--11-11-11-11-11-11-11-11--6-6-6-6-6-6-6-6--8-8-8-8-8-8-8-8-----| (x3)
E|---2-2-2-2-2-2-2-2--9--9--9--9--9--9--9--9---4-4-4-4-4-4-4-4--6-6-6-6-6-6-6-6-----|

e|----------------------------------------------------------------------------------|
B|----------------------------------------------------------------------------------|
G|----------------------------------------------------------------------------------|
D|---4-4-4-4-4-4-4-4--11-11-11-11-11-11-11-11--6-6-6-6-6-6-6-6----------------------|
A|---4-4-4-4-4-4-4-4--11-11-11-11-11-11-11-11--6-6-6-6-6-6-6-6----------------------| 
E|---2-2-2-2-2-2-2-2--9--9--9--9--9--9--9--9---4-4-4-4-4-4-4-4----------------------|

[Pre-Chours]
1:26
"Whip, whip..."
e|---------------------------------------------------------------------------|
B|---x-11~----x-9~----x-14~---x-16~------------------------------------------|
G|---------------------------------------------------------------------------|
D|---------------------------------------------------------------------------| (x2)
A|---------------------------------------------------------------------------|
E|---------------------------------------------------------------------------|


[Chorus]
0:43
"...takes!
e|----------------------------------------------------------------------------------|
B|----------------------------------------------------------------------------------|
G|----------------------------------------------------------------------------------|
D|---4-4-4-4-4-4-4-4--11-11-11-11-11-11-11-11--6-6-6-6-6-6-6-6--8-8-8-8-8-8-8-8-----|
A|---4-4-4-4-4-4-4-4--11-11-11-11-11-11-11-11--6-6-6-6-6-6-6-6--8-8-8-8-8-8-8-8-----| (x3)
E|---2-2-2-2-2-2-2-2--9--9--9--9--9--9--9--9---4-4-4-4-4-4-4-4--6-6-6-6-6-6-6-6-----|

e|----------------------------------------------------------------------------------|
B|----------------------------------------------------------------------------------|
G|----------------------------------------------------------------------------------|
D|---4-4-4-4-4-4-4-4--11-11-11-11-11-11-11-11--6-6-6-6-6-6-6-6----------------------|
A|---4-4-4-4-4-4-4-4--11-11-11-11-11-11-11-11--6-6-6-6-6-6-6-6----------------------| 
E|---2-2-2-2-2-2-2-2--9--9--9--9--9--9--9--9---4-4-4-4-4-4-4-4----------------------|


[Bridge]
2:22
"...postrophe..."
e|----------------------------------------------------------------------------------|
B|-------------------------------------------------------------------------9--------|
G|---8-8-6-6----------8-8-6-6----------8-8-6-6-----------8-8-6-6--------------------|
D|-----------8-/-10-----------8-/-10------------8-/-10------------8-/-10------------|
A|----------------------------------------------------------------------------------|
E|----------------------------------------------------------------------------------|

2:36
e|----------------------------------------------------------------------------------|
B|---11-11-11-11-11-11-11-11--11b-11b-11b-11b-11b-11b-11b-11br----------------------|
G|----------------------------------------------------------------------------------|
D|----------------------------------------------------------------------------------| (x2)
A|----------------------------------------------------------------------------------|
E|----------------------------------------------------------------------------------|

[Chorus]
2:47
"...takes!
e|----------------------------------------------------------------------------------|
B|----------------------------------------------------------------------------------|
G|----------------------------------------------------------------------------------|
D|---4-4-4-4-4-4-4-4--11-11-11-11-11-11-11-11--6-6-6-6-6-6-6-6--8-8-8-8-8-8-8-8-----|
A|---4-4-4-4-4-4-4-4--11-11-11-11-11-11-11-11--6-6-6-6-6-6-6-6--8-8-8-8-8-8-8-8-----| (x3)
E|---2-2-2-2-2-2-2-2--9--9--9--9--9--9--9--9---4-4-4-4-4-4-4-4--6-6-6-6-6-6-6-6-----|

e|----------------------------------------------------------------------------------|
B|----------------------------------------------------------------------------------|
G|----------------------------------------------------------------------------------|
D|---4-4-4-4-4-4-4-4--11-11-11-11-11-11-11-11--6-6-6-6-6-6-6-6----------------------|
A|---4-4-4-4-4-4-4-4--11-11-11-11-11-11-11-11--6-6-6-6-6-6-6-6----------------------| 
E|---2-2-2-2-2-2-2-2--9--9--9--9--9--9--9--9---4-4-4-4-4-4-4-4----------------------|

************************************

| x   Dead note
| b   Bend
| br  Bend release
| /   Slide up
| \   Slide down
| ~   Vibrato

************************************

            
            
Suggest correction
Creating personal tab
Creating personal tab
You can edit any tab online and save it as your Personal.

You can edit, replace or remove any tab part or add personal notes – all changes will be seen only by you.

Personal tabs can be accessed anytime from any device, even offline.
Learn more »
comments
print report bad tab
1 comment total.
+1 reply
Jokozurhorst 10 Oct 15, 2017 06:11 AM

I think the guitarist slides up in the chorus from Fis Powerchord to Cis Powerchord but that's not very important...
I love this song and this tab too!

guest
You may want to rate the tab now too:
select rating
Wanna post a correction for this tab? Suggest correction