Oops, an error
Loading. Please wait.

Call Me tab

1,672 views 36 this week
no commentswrite comment
1 2 3 4 5
1 last vote to show rating
add to favorites
×
Save as Personal and add changes to this tab that will be seen only by you. Learn more ›
×
You can save this tab as Personal to edit and correct it or add notes. All changes will be seen only by you. Learn more »
launch autoscroll
font size
0
reset
how to read this tab
guitar tuner
edit
Autoscroll
slow
fast
+/-
esc
set tempo
stop
Author
Difficulty
Chords
1)[Intro]and verse  Bbmaj7, Eb
 Bbmaj7  Eb  
e|-(1)---------------------------------------|
B|--3----4---3------4---------3-----------3--|
G|--2----3---2------3h5p3-----3-----------2--|
D|--3----5---3---3/5------5---3-------3---3--|
A|--1--------1----------------5----3h5----1--|
E|--x-------------------------6--------------|

This are the basics. There are a few more picks in the guitar, but choose your pattern.

[Verse]
"Telling me that your still in love, still in love with me."
Just in this verse after Eb advance to F
 Bbmaj7  Eb  F
e|-(1)------------|
B|--3----4-/-6----|
G|--2----3-/-5----|
D|--3----5-/-7----|
A|--1-------------|
E|--x-------------|

[Chorus] 
(The chorus is a typical fall from the main tone (Bb in this case)
(Option 1)
    Bb  Fsus4/A  Gm7   Eb   Bb
e|---------------(6)---------6---|
B|---6--6---------6----4-----6---|
G|---7--5---------7----3-----7---|
D|---8--7---------5----5-----8---|
A|---------------------------8---|
E|---------------------------6---|

Option 2 (which just not so practical since it is played to above in the fret)
(still the sound is exactly the same as option 1)
    Bb  Fsus4/A Gm7  Eb   Bb
e|------------------------6------|
B|--11----11----11---11---6------|
G|--10----10----10---12---7------|
D|--12----10----12---13---8------|
A|--13----12----10---13---8------|
E|-------------------11---6------|

[Small solo]
e|---------------------------------------------------------------------------|
B|---------------------------------------------------------------------------|
G|---------------------------------------------------------------------------|
D|-----------8--10/12~~~~~--10h12p10/8h10--8--------------8------------------|
A|---8--8h10-----------------------------------8h10--------------------------|
E|---------------------------------------------------------------------------|

e|------------------------------------------------------------------------------------------------|
B|-----------------------------------------------------------------13b14b13p11--13b14--11---------|
G|----------10---10h12~p12-------------------------------10~~~~10-------------12------------------|
D|-----10/12--12------------12/10/8h10------------8/10/12-----------------------------------------|
A|--8----------------------------------10----8--10------------------------------------------------|
E|------------------------------------------------------------------------------------------------|

4)Bridge"Don't you miss me......."
   Cm7   Gm7   Dm7  Eb-Gm-Cm  F    Eb  
e|-----------------------------------------------------------|
B|---4----3-----4---4--3--4---6----4-------------------------|
G|---3----3-----5---3--3--3---5----3-------------------------|
D|---5----3-----7---5--3--5---7----5-------------------------|
A|---3----5-----5---6--5--3--------6-------------------------|
E|--------3------------3-------------------------------------|
1) 
Put it down then I pick it back up,
1)
Praying for your name to pop up,
2)
Telling me that your still in love, still in love with me.

(Same as above)
No matter how hard I hope, 
No matter how much I want, 
No matter how bad I'm broke, 
You still don't,

Call, call, call, call me, 
You've taken all the time you need,
If our love, if our love, if our love, means anything,
Baby please call, call, call, call me.

Can't sleep I'm scared to dream, 
I'm remembering everything, 
That you said, that you said to me, 
When I was yours and you were mine and I didn't have to wait all night for you to 

Call, call, call, call me, you've taken all the time you need,
If our love, if our love, if our love, means anything,
Baby please call, call, call, call me.

Don't you miss me, don't you need me, don't you leave me this way.
Aren't you lonely, don't you want me, how many times must I say

Call, call, call, call me, you've taken all the time you need,
If our love, if our love, if our love, means anything,
Baby please call, call, call, call me.

Oh call, call, call, call me.
If our love, if our love, if our love, means anything,
Baby please call, call, call, call me.

************************************

| h   Hammer-on
| p   Pull-off
| b   Bend
| /   Slide up
| ~   Vibrato

************************************

            
            
Suggest correction
Creating personal tab
Creating personal tab
You can edit any tab online and save it as your Personal.

You can edit, replace or remove any tab part or add personal notes – all changes will be seen only by you.

Personal tabs can be accessed anytime from any device, even offline.
Learn more »
Give kudos to tab author, rate the tab!
1 2 3 4 5
comments
print report bad tab
guest
You may want to rate the tab now too:
select rating
Wanna post a correction for this tab? Suggest correction