Oops, an error
Loading. Please wait.

Close To A World Below tab

version 1
version 1

Whole song

Interactive

3,613 views 6 this week
no commentswrite comment
1 2 3 4 5
x 3
add to favorites
×
Save as Personal and add changes to this tab that will be seen only by you. Learn more ›
×
You can save this tab as Personal to edit and correct it or add notes. All changes will be seen only by you. Learn more »
launch autoscroll
font size
0
reset
how to read this tab
guitar tuner
edit
Autoscroll
slow
fast
+/-
esc
set tempo
stop
Author
Tuning: C [C, F, Bb, eb, g, c] 

[Intro 1] (x2)
e|---------0"....-0"........-|---------------------------| 
B|o--------5"....-6"........-|--------------------------o| 
G|---------------------------|---------------------------| 
D|--2=====-------------------|-2=====--------------------| 
A|o-2=====-------------------|-2=====-------------------o| 
E|--0=====-------------------|-0=====--------------------| 

e|---------------------------|--------0"....-0"........--| 
B|o--------------------------|--------5"....-6"........-o| 
G|---------------------------|---------------------------| 
D|--2=======================-|-2=====--------------------| 
A|o-2=======================-|-2=====-------------------o| 
E|--0=======================-|-0=====--------------------| 

[Intro 2] 
(x3) 
(both guitars) 
e|---------0"....-0"........--| 
B|o--------5"....-6"........-o| 
G|----------------------------| 
D|--2=====--------------------| 
A|o-2=====-------------------o| 
E|--0=====--------------------| 

[Riff 1] 
(x5) 
e|---------0"....-0"........--------| 
B|o--------5"....-6"........-------o| 
G|----------------------------------| 
D|--2=====-------------------8--3---| 
A|o-2=====-------------------------o| 
E|--0=====-------------------6--1---| 

[Riff 2] 
(x4)
e|-----------------------|--------------------------------| 
B|o----------------------|-------------------------------o| 
G|-------6----7----10----|-9------------------------------| 
D|--2----4----5-----8----|-7-----9----------------8--3----| 
A|o-2----4----5-----8----|-7-----------------------------o| 
E|--0--------------------|-------7----------------6--1----| 

e|-----------------------|--------------------------------| 
B|o----------------------|------10/12-13--13--12---------o| 
G|-------6----7----10----|-9------------------------------| 
D|--2----4----5-----8----|-7----------------------8--3----| 
A|o-2----4----5-----8----|-7-----------------------------o| 
E|--0--------------------|------------------------6--1----| 

 [Outro 1a] 
e|---------0"....-0"........---[x3]-|--------0"....-0"........---- 
B|o--------5"....-6"........-------o|--------5"....-6"...........- 
G|----------------------------------|----------------------------- 
D|--2=====-------------------8--3---|-2=====---------------------- 
A|o-2=====-------------------------o|-2=====---------------------- 
E|--0=====-------------------6--1---|-0=====---------------------- 

[Riff 3] (x4)
e|---------------------------------| 
B|o-------------------------------o| 
G|---------9-9-----9-9-------------| 
D|---------9-9-----9-9-------------| 
A|o-7"....-----7"..----7"..8"....-o| 
E|--4"....-------------------------| 

[Riff 4] (x4)
e|-------------------------| 
B|o-----------------------o| 
G|-------------------------| 
D|--------------------5-5--| 
A|o---2---5".........-7-7-o| 
E|--0-0-0-8".........------| 

[Riff 3] (x4)
e|---------------------------------| 
B|o-------------------------------o| 
G|---------9-9-----9-9-------------| 
D|---------9-9-----9-9-------------| 
A|o-7"....-----7"..----7"..8"....-o| 
E|--4"....-------------------------| 

[Riff 4] (x4)
e|-------------------------| 
B|o-----------------------o| 
G|-------------------------| 
D|--------------------5-5--| 
A|o---2---5".........-7-7-o| 
E|--0-0-0-8".........------| 

[Riff 5] 
e|----------------------[x3]-|------------------------------| 
B|o-------------------------o|------------------------------| 
G|--------------12-12-12-12--|-------------12-12-12-12=====-| 
D|--8-3----------9--9--9--9--|-8-3----------9--9--9--9=====-| 
A|o-----------2--7--7--7--7-o|-----------2--7--7--7--7=====-| 
E|--6-1-0"...-0--------------|-6-1-0"...-0------------------| 

 [Riff 6] (x4) 
e|---------------0"....-0"........--| 
B|o--------------5"....-6"........-o| 
G|----------------------------------| 
D|--6--3--2=====--------------------| 
A|o-------2=====-------------------o| 
E|--6--1--0=====--------------------| 

[Riff 3] (x4)
e|---------------------------------| 
B|o-------------------------------o| 
G|---------9-9-----9-9-------------| 
D|---------9-9-----9-9-------------| 
A|o-7"....-----7"..----7"..8"....-o| 
E|--4"....-------------------------| 

[Riff 4] (x4)
e|-------------------------| 
B|o-----------------------o| 
G|-------------------------| 
D|--------------------5-5--| 
A|o---2---5".........-7-7-o| 
E|--0-0-0-8".........------| 

[Riff 3] (x4)
e|---------------------------------| 
B|o-------------------------------o| 
G|---------9-9-----9-9-------------| 
D|---------9-9-----9-9-------------| 
A|o-7"....-----7"..----7"..8"....-o| 
E|--4"....-------------------------| 

[Riff 4] (x4)
e|-------------------------| 
B|o-----------------------o| 
G|-------------------------| 
D|--------------------5-5--| 
A|o---2---5".........-7-7-o| 
E|--0-0-0-8".........------| 

[Riff 5] 
e|----------------------[x3]-|------------------------------| 
B|o-------------------------o|------------------------------| 
G|--------------12-12-12-12--|-------------12-12-12-12=====-| 
D|--8-3----------9--9--9--9--|-8-3----------9--9--9--9=====-| 
A|o-----------2--7--7--7--7-o|-----------2--7--7--7--7=====-| 
E|--6-1-0"...-0--------------|-6-1-0"...-0------------------|  

 [Riff 6a] (x6) 
e|--------------------------------|-------------------------------| 
B|o-------------------------------|------------------------------o| 
G|--------------------------------|-------------------------------| 
D|--2--------------2--------------|-2-----------------------------| 
A|o-2----------0-0-2----------0-0-|-2----------0-0-----55-5-66-6-o| 
E|----000000-3-2-2---000000-3-2-2-|---000000-3-2-2-3-3------------| 
      ...... .       ...... .         ...... .     . . .. . .. . 

[Riff 6b] 
e|-------------------------------|------------------------------| 
B|-------------------------------|------------------------------| 
G|-------------------------------|------------------------------| 
D|-2--------------2--------------|-2----------------------------| 
A|-2----------0-0-2----------0-0-|-2----------0-0-----55-5-66-6-| 
E|---000000-3-2-2---000000-3-2-2-|---000000-3-2-2-3-3-----------| 

     ...... .       ...... .         ...... .     . . .. . .. . 
e|---------------------------7/8~|------------------------------| 
B|-5~~~-------5/6~5~~~-----------|-5~~~-------5/6~5~~~~~--------| 
G|-------------------------------|------------------------------| 
D|-------------------------------|------------------------------| 
A|-------------------------------|------------------------------| 
E|-------------------------------|------------------------------| 

e|-|-------------------------------|------------------------------| 
B|-|-------------------------------|------------------------------| 
G|-|-------------------------------|------------------------------| 
D|-|-2--------------2--------------|-2----------------------------| 
A|-|-2----------0-0-2----------0-0-|-2----------0-0-----55-5-66-6-| 
E|-|---000000-3-2-2---000000-3-2-2-|---000000-3-2-2-3-3-----------| 

       ...... .       ...... .        ...... .     . . .. . .. . 
e|-12~~~----12/13~12~~~----12/16~|-12~~~------12/13~--12~~~-----| 
B|-------------------------------|------------------------------| 
G|-------------------------------|------------------------------| 
D|-------------------------------|------------------------------| 
A|-------------------------------|------------------------------| 
E|-------------------------------|------------------------------| 

[Outro 2] 
(x2)
e|------------------------|------------------------| 
B|o-----------------------|-----------------------o| 
G|------------------------|------------------------| 
D|------------------------|------------------------| 
A|o---2--6666666644444444-|---2-------------------o| 
E|--0-0-------------------|-0-0--------------------| 
                                              
e|------------------------|------------------------| 
B|o-----------------------|-----------------------o| 
G|------------------------|------------------------| 
D|------------------------|------------------------| 
A|o---2-------------------|---2--6666666644444444-o| 
E|--0-0-------------------|-0-0--------------------| 

[Riff 7] (x6)
e|------------------------|------------------------| 
B|o-----------------------|-----------------------o| 
G|------------------------|------------------------| 
D|------------------------|------------------------| 
A|o---2--6666666644444444-|---2--6666666644444444-o| 
E|--0-0-------------------|-0-0--------------------| 

[Riff 8] (x4) 
e|---------------------------|----------------------------------| 
B|o--------------------------|---------------------------------o| 
G|---------------------------|-----------------5-5-5-5----------| 
D|------3----4-4-4-4-3-3-3-3-|-8-8-8-8-7-7-7-7-3-3-3-3-5-5-5-5--| 
A|o-----1-2--2-2-2-2-3-3-3-3-|-6-6-6-6-5-5-5-5-3-3-3-3-3-3-3-3-o| 
E|--0-0-1-0--2-2-2-2-1-1-1-1-|-6-6-6-6-5-5-5-5---------3-3-3-3--| 
    . . 
  
[Riff 9] (x4) 
e|-------------------------------| 
B|o-----------------------------o| 
G|-----------------------6-------| 
D|-----------------------4-------| 
A|o-2------6------3------4------o| 
E|--0-0000-4-0000-1-0000---0000--| 
      ....   ....   ....   .... 

[Riff 7] (x8)
e|------------------------|------------------------| 
B|o-----------------------|-----------------------o| 
G|------------------------|------------------------| 
D|------------------------|------------------------| 
A|o---2--6666666644444444-|---2--6666666644444444-o| 
E|--0-0-------------------|-0-0--------------------|

[Riff 9] (x4)
e|------------------|------------------| 
B|o-----------------|-----------------o| 
G|--4-----------3-3-|-4-----------3-3--| 
D|--2----2------1-1-|-2----2------1-1--| 
A|o-2----2------1-1-|-2----2------1-1-o| 
E|----00-0---00-----|---00-0---00------| 

[Instrumental] 
(x2)
e|---------0"....-0"........-|---------------------------| 
B|o--------5"....-6"........-|--------------------------o| 
G|---------------------------|---------------------------| 
D|--2=====-------------------|-2=====--------------------| 
A|o-2=====-------------------|-2=====-------------------o| 
E|--0=====-------------------|-0=====--------------------| 

e|---------------------------|--------0"....-0"........--| 
B|o--------------------------|--------5"....-6"........-o| 
G|---------------------------|---------------------------| 
D|--2=======================-|-2=====--------------------| 
A|o-2=======================-|-2=====-------------------o| 
E|--0=======================-|-0=====--------------------|  

[Outro 3] 
e|--------0"....-0"........-|--------------------------------| 
B|--------5"....-6"........-|--------------------------------| 
G|--------------------------|--------------------------------| 
D|-2=====-------------------|-2=====-------------------8--3--| 
A|-2=====-------------------|-2=====-------------------------| 
E|-0=====-------------------|-0=====-------------------6--1--| 

e|--------------------------|--------0"....-0"........-------| 
B|--------------------------|--------5"....-6"........-------| 
G|--------------------------|--------------------------------| 
D|-2=======================-|-2=====-------------------8--3--| 
A|-2=======================-|-2=====-------------------------| 
E|-0=======================-|-0=====-------------------6--1--| 

[Outro 1b] 
e|---------0"....-0"........---[x4]-|--------0"....-0"........----| 
B|o--------5"....-6"........-------o|--------5"....-6"...........-| 
G|----------------------------------|-----------------------------| 
D|--2=====-------------------8--3---|-2=====----------------------| 
A|o-2=====-------------------------o|-2=====----------------------| 
E|--0=====-------------------6--1---|-0=====----------------------| 

[Riff 3] (x4)
e|---------------------------------| 
B|o-------------------------------o| 
G|---------9-9-----9-9-------------| 
D|---------9-9-----9-9-------------| 
A|o-7"....-----7"..----7"..8"....-o| 
E|--4"....-------------------------| 

[Riff 4] (x4)
e|-------------------------| 
B|o-----------------------o| 
G|-------------------------| 
D|--------------------5-5--| 
A|o---2---5".........-7-7-o| 
E|--0-0-0-8".........------| 

[Riff 3] (x4)
e|---------------------------------| 
B|o-------------------------------o| 
G|---------9-9-----9-9-------------| 
D|---------9-9-----9-9-------------| 
A|o-7"....-----7"..----7"..8"....-o| 
E|--4"....-------------------------| 

[Riff 4] (x4)
e|-------------------------| 
B|o-----------------------o| 
G|-------------------------| 
D|--------------------5-5--| 
A|o---2---5".........-7-7-o| 
E|--0-0-0-8".........------| 

[Riff 5] 
e|----------------------[x3]-|------------------------------| 
B|o-------------------------o|------------------------------| 
G|--------------12-12-12-12--|-------------12-12-12-12=====-| 
D|--8-3----------9--9--9--9--|-8-3----------9--9--9--9=====-| 
A|o-----------2--7--7--7--7-o|-----------2--7--7--7--7=====-| 
E|--6-1-0"...-0--------------|-6-1-0"...-0------------------|  

[Ending 1] 
(x2)
e|-----------------------|--------------------------------| 
B|o----------------------|-------------------------------o| 
G|-------------6----7----|-10----9------------------------| 
D|--8--3--2----4----5----|--8----7----9-------------------| 
A|o-------2----4----5----|--8----7-----------------------o| 
E|--6--1--0--------------|------------7-------------------| 

e|-----------------------|--------------------------------| 
B|o----------------------|------------10/12~13"-13"-12"--o| 
G|-------------6----7----|-10----9------------------------| 
D|--8--3--2----4----5----|--8----7------------------------| 
A|o-------2----4----5----|--8----7-----------------------o| 
E|--6--1--0--------------|--------------------------------| 

[Ending 2]
e|-------------------------|-----------------------| 
B|o------------------------|----------------------o| 
G|---------------6----7----|-10-----9--------------| 
D|---8---3--2----4----5----|--8-----7-----9--------| 
A|o---------2----4----5----|--8-----7-------------o| 
E|---6---1--0--------------|--------------7--------| 

e|--7~---------------------|-7"..---10"-8"-7b8~~---| 
B|o------6--5~-------------|----------------------o| 
G|-------------------------|-----------------------| 
D|-------------------------|-----------------------| 
A|o------------------------|----------------------o| 
E|-------------------------|-----------------------|


************************************

| /  Slide up
| .  Staccato
| ~  Vibrato
| b  Bend
|" - tremolo             
|h - hammer on            
|\ - slide down 
|p - pull off           
|tr - trill               
|^ - pinch harmonics      
|= - sustained note              
|p.m. - palm muting         
|t - tapping 

************************************

            
            
Suggest correction
Creating personal tab
Creating personal tab
You can edit any tab online and save it as your Personal.

You can edit, replace or remove any tab part or add personal notes – all changes will be seen only by you.

Personal tabs can be accessed anytime from any device, even offline.
Learn more »
Give kudos to tab author, rate the tab!
1 2 3 4 5
comments
print report bad tab
guest
You may want to rate the tab now too:
select rating
Wanna post a correction for this tab? Suggest correction