Oops, an error
Loading. Please wait.

When I Speak guitar pro

1,290 views 3 this week
5 commentsread comments
1 2 3 4 5
2 more votes to show rating
add to favorites
guitar tuner
Autoscroll
slow
fast
+/-
esc
set tempo
stop
"When I Speak"
demo version
Play now

or get full version for Free

×
Get full version now!
Learn and play this song
in Tab Pro
Try for free

or get $10 off Welcome Bonus

Get welcome bonus
Get access to Tab Pro version of “When I Speak”!
Tab Pro is a premium guitar tab service, available on PC, Mac, iOS and Android
TRY FOR FREE
To download “When I Speak” Guitar Pro tab click button below
Please note that you must have Guitar Pro software installed on your
computer in order to view this file.
Suggest correction
Give kudos to tab author, rate the tab!
1 2 3 4 5
comments
report bad tab
5 comments total. Showing first comments.
+1 reply
Alpha_Wolf 268 Oct 14, 2010 01:03 PM

I can't find anything wrong with it! Amazing job! I'm gonna start learning this now.

0 reply
Alpha_Wolf 268 Oct 17, 2010 12:00 PM

Actually, there is one minor thing. I think it was probably a typo, because the chugs in the breakdown like this:

E|------------------------------------------|
B|------------------------------------------|
G|------------------------------------------|
D|------------------------------------------|
A|-1-1--1-1--1111---------------------------|
E|-0-0--0-0--0000---------------------------|
A|------------------------------------------|


When I'm pretty sure they should be like this:

E|------------------------------------------|
B|------------------------------------------|
G|------------------------------------------|
D|------------------------------------------|
A|------------------------------------------|
E|-0-0--0-0--0000---------------------------|
A|-1-1--1-1--1111---------------------------|

0 reply
josh-josh-josh 11,884 Oct 17, 2010 04:53 PM

i think it could be either :P or even:

- ------------------------------------------
- ------------------------------------------
- ------------------------------------------
- -1-1--1-1--1111---------------------------
- -0-0--0-0--0000---------------------------
- -1-1--1-1--1111---------------------------
PM ........................................


i dno if its like the tone of his guitar or just my crappy speakers on my laptop lol but it sounds so grainy, n really not like hes not playing the bottum string. its like all mids. even in the power chords i dint note the bottum string cuz it didnt sound right when i played along :P i thought it was too deep.

either way its up to you loll ill say right now you could definately use the bottum string to make it sound more complete and punchy, it just dint sound like that when i played with it hahah. but, completely my opinion! your call :)

guest
You may want to rate the tab now too:
select rating