Oops, an error
Loading. Please wait.

Belladonna bass

100 views 6 this week
no commentswrite comment
1 2 3 4 5
3 more votes to show rating
add to favorites
×
Save as Personal and add changes to this tab that will be seen only by you. Learn more ›
×
You can save this tab as Personal to edit and correct it or add notes. All changes will be seen only by you. Learn more »
launch autoscroll
font size
0
reset
guitar tuner
edit
Autoscroll
slow
fast
+/-
esc
set tempo
stop
Author
Difficulty
[Intro] 
(join at 0:15)
G|9-9-9-9---9-9-9-|9---------------|9-9-9-9---9-9-9-|9---------------|9-9-9-9---9-9-9-|9---------------|
D|----------------|----7---7~------|----------------|--7---7---10----|----------------|----7---7~------|
A|----------------|----------------|----------------|----------------|----------------|----------------|
E|----------------|----------------|----------------|----------------|----------------|----------------|
B|----------------|----------------|----------------|----------------|----------------|----------------|

G|----------------|----------------|
D|----------------|----------------|
A|3/5---3/5---3/5-|--3/5---10~-----| (2x)
E|----------------|----------------|
B|----------------|----------------|

G|----------------|----------------|----------------|----------------|----------------|----------------|
D|----------------|----------------|----------------|----------------|----------------|----------------|
A|----------------|----------------|----------------|----------------|----------------|----------------|
E|----------------|--------------1-|----------------|--------------1-|----------------|--------------1-|
B|1---1-----1---1-|--1-4-1-4-1-4---|----1-----1---1-|--1-4-1-4-1-4---|----1-----1---1-|--1-4-1-4-1-4---|

G|----------------|----------------|
D|----------------|----------------|
A|----------------|----------------|
E|----------------|----------------|
B|----1-----1---1-|4-4-3-3-1-1-3-3-|

[Verse 1]
G|----------------|----------------|----------------|----------------|----------------|----------------|
D|----------------|----------------|----------------|----------------|----------------|----------------|
A|----------------|----------------|----------------|----------------|----------------|----------------|
E|----------------|--------------1-|----------------|--------------1-|----------------|--------------1-|
B|1---1-----1---1-|--1-4-1-4-1-4---|----1-----1---1-|--1-4-1-4-1-4---|----1-----1---1-|--1-4-1-4-1-4---|

G|----------------|----------------|
D|----------------|----------------|
A|----------------|----------------| (2x)
E|----------------|----------------|
B|----1-----1---1-|4-4-3-3-1-1-3-3-|

[Transition]
G|----------------|----------------|----------------|----------------|
D|----------------|----------------|----------------|----------------|
A|----------------|----------------|----------------|----------------|
E|4---4-----4---3-|--3-3-----3---2-|--2-2-----2---1-|--1-1-----------|
B|----------------|----------------|----------------|--------7\------|

[Verse 2]
G|----------------|----------------|----------------|----------------|----------------|----------------|
D|----------------|----------------|----------------|----------------|----------------|----------------|
A|----------------|----------------|----------------|----------------|----------------|----------------|
E|----------------|--------------1-|----------------|--------------1-|----------------|--------------1-|
B|1---1-----1---1-|--1-4-1-4-1-4---|----1-----1---1-|--1-4-1-4-1-4---|----1-----1---1-|--1-4-1-4-1-4---|

G|----------------|----------------|
D|----------------|----------------|
A|----------------|----------------| (2x)
E|----------------|----------------|
B|----1-----1---1-|4-4-3-3-1-1-3-3-|

[Pre-Chorus]
G|----------------|----------------|----------------|----------------|----------------|----------------|
D|3-3-3-3-3-3-3-3-|3-3-3-3-3-3-3-3-|5-5-5-5-5-5-5-5-|5-5-5-5-5-5-5-5-|3-3-3-3-3-3-3-3-|3-3-3-3-3-3-3-3-|
A|----------------|----------------|----------------|----------------|----------------|----------------|
E|----------------|----------------|----------------|----------------|----------------|----------------|
B|----------------|----------------|----------------|----------------|----------------|----------------|

G|----------------|----------------|
D|----------------|----------------|
A|5-5-5-5-5-5-5-5-|5-5-5-5-5-------|
E|----------------|----------------|
B|----------------|----------------|

[Chorus 1]
G|----------------|----------------|----------------|----------------|----------------|----------------|
D|----------------|----------------|----------------|----------------|----------------|----------------|
A|----------------|----------------|----------------|----------------|----------------|----------------|
E|5-5-5-5-5-5-5-5-|1-1-1-1-1-1-1-1-|3-3-3-3-3-3-3-3-|5-5-5-5-5-5-5-5-|5-5-5-5-5-5-5-5-|1-1-1-1-1-1-1-1-|
B|----------------|----------------|----------------|----------------|----------------|----------------|

G|----------------|----------------|----------------|----------------|----------------|----------------|
D|----------------|----------------|----------------|----------------|----------------|----------------|
A|----------------|----------------|----------------|----------------|----------------|----------------|
E|0-0-0-0-0-0-0-0-|5-5-5-5-5-5-5-5-|5-5-5-5-5-5-5-5-|1-1-1-1-1-1-1-1-|3-3-3-3-3-3-3-3-|5-5-5-5-5-5-5-5-|
B|----------------|----------------|----------------|----------------|----------------|----------------|

G|----------------|----------------|----------------|----------------|
D|----------------|----------------|----------------|7---7---7---7---|
A|----------------|----------------|----------------|----------------|
E|5-5-5-5-5-5-5-5-|1-1-1-1-1-1-1-1-|0-0-0-0-0-0-0-0-|----------------|
B|----------------|----------------|----------------|----------------|

[Transition]
G|9-9-9-9---9-9-9-|9---------------|
D|----------------|----7---7---10--|
A|----------------|----------------| (2x)
E|----------------|----------------|
B|----------------|----------------|

G|9-9-9-9---9-9-9-|9---------------|----------------|----------------|
D|----------------|----7---7---5---|3/5---3/5---3/5-|--3/5---10~-----|
A|----------------|----------------|----------------|----------------|
E|----------------|----------------|----------------|----------------|
B|----------------|----------------|----------------|----------------|

[Verse 3]
G|----------------|----------------|----------------|----------------|----------------|----------------|
D|----------------|----------------|----------------|----------------|----------------|----------------|
A|----------------|----------------|----------------|----------------|----------------|----------------|
E|----------------|--------------1-|----------------|--------------1-|----------------|--------------1-|
B|1---1-----1---1-|--1-4-1-4-1-4---|----1-----1---1-|--1-4-1-4-1-4---|----1-----1---1-|--1-4-1-4-1-4---|

G|----------------|----------------|
D|----------------|----------------|
A|----------------|----------------| (2x)
E|----------------|----------------|
B|----1-----1---1-|4-4-3-3-1-1-3-3-|

[Transition]
G|----------------|----------------|----------------|----------------|
D|----------------|----------------|----------------|----------------|
A|----------------|----------------|----------------|----------------|
E|4---4-----4---3-|--3-3-----3---2-|--2-2-----2---1-|--1-1---1~------|
B|----------------|----------------|----------------|----------------|

[Verse 4]
G|----------------|----------------|----------------|----------------|----------------|----------------|
D|----------------|----------------|----------------|----------------|----------------|----------------|
A|----------------|----------------|----------------|----------------|----------------|----------------|
E|----------------|--------------1-|----------------|--------------1-|----------------|--------------1-|
B|1---1-----1---1-|--1-4-1-4-1-4---|----1-----1---1-|--1-4-1-4-1-4---|----1-----1---1-|--1-4-1-4-1-4---|

G|----------------|----------------|
D|----------------|----------------|
A|----------------|----------------| (2x)
E|----------------|----------------|
B|----1-----1---1-|4-4-3-3-1-1-3-3-|

[Pre-Chorus]
G|----------------|----------------|----------------|----------------|----------------|----------------|
D|3-3-3-3-3-3-3-3-|3-3-3-3-3-3-3-3-|5-5-5-5-5-5-5-5-|5-5-5-5-5-5-5-5-|3-3-3-3-3-3-3-3-|3-3-3-3-3-3-3-3-|
A|----------------|----------------|----------------|----------------|----------------|----------------|
E|----------------|----------------|----------------|----------------|----------------|----------------|
B|----------------|----------------|----------------|----------------|----------------|----------------|

G|----------------|----------------|
D|----------------|----------------|
A|5-5-5-5-5-5-5-5-|5-5-5-5-5-------|
E|----------------|----------------|
B|----------------|----------------|

[Chorus 2]
G|----------------|----------------|----------------|----------------|----------------|----------------|
D|----------------|----------------|----------------|----------------|----------------|----------------|
A|----------------|----------------|----------------|----------------|----------------|----------------|
E|5-5-5-5-5-5-5-5-|1-1-1-1-1-1-1-1-|3-3-3-3-3-3-3-3-|5-5-5-5-5-5-5-5-|5-5-5-5-5-5-5-5-|1-1-1-1-1-1-1-1-|
B|----------------|----------------|----------------|----------------|----------------|----------------|

G|----------------|----------------|----------------|----------------|----------------|----------------|
D|----------------|----------------|----------------|----------------|----------------|----------------|
A|----------------|----------------|----------------|----------------|----------------|----------------|
E|0-0-0-0-0-0-0-0-|5-5-5-5-5-5-5-5-|5-5-5-5-5-5-5-5-|1-1-1-1-1-1-1-1-|3-3-3-3-3-3-3-3-|5-5-5-5-5-5-5-5-|
B|----------------|----------------|----------------|----------------|----------------|----------------|

G|----------------|----------------|----------------|----------------|
D|----------------|----------------|----------------|----------------|
A|----------------|----------------|----------------|----------------|
E|5-5-5-5-5-5-5-5-|1-1-1-1-1-1-1-1-|0-0-0-0-0-0-0-0-|5---5---5-------|
B|----------------|----------------|----------------|----------------|

[Solo]
G|9-9-9-9---9-9-9-|9---------------|9-9-9-9---9-9-9-|9---------------|9-9-9-9---9-9-9-|9---------------|
D|----------------|----7---7~------|----------------|--7---7---10----|----------------|----7---7~------|
A|----------------|----------------|----------------|----------------|----------------|----------------|
E|----------------|----------------|----------------|----------------|----------------|----------------|
B|----------------|----------------|----------------|----------------|----------------|----------------|

G|----------------|----------------|
D|----------------|----------------|
A|3/5---3/5---3/5-|--3/5---10~-----| (3x)
E|----------------|----------------|
B|----------------|----------------|

G|10-10-10-10--10-10-10-|10--------------|10-10-10-10--10-10-10-|10----------10--|
D|----------------------|----12--12--12--|----------------------|----12--12------|
A|----------------------|----------------|----------------------|----------------|
E|----------------------|----------------|----------------------|----------------|
B|----------------------|----------------|----------------------|----------------|

G|12-12-12-12--12-12-12-|12--------------|12-12-12-12--12-12-12-|12----------10-10-|
D|----------------------|----9---9~------|----------------------|----9---9---------|
A|----------------------|----------------|----------------------|------------------|
E|----------------------|----------------|----------------------|------------------|
B|----------------------|----------------|----------------------|------------------|

G|10-10-10-10--10-10-10-|10--------------|10-10-10-10--10-10-10-|10----------10--|
D|----------------------|----12--12~-----|----------------------|----12--12------|
A|----------------------|----------------|----------------------|----------------|
E|----------------------|----------------|----------------------|----------------|
B|----------------------|----------------|----------------------|----------------|

G|10-10-10-10--10-10-10-|10--------------|----------------|--------17~-----|
D|----------------------|----10--10~-----|3/5---3/5---3/5-|--3/5-----------|
A|----------------------|----------------|----------------|----------------|
E|----------------------|----------------|----------------|----------------|
B|----------------------|----------------|----------------|----------------|

[Chorus 3]
G|----------------|----------------|----------------|----------------|----------------|----------------|
D|----------------|----------------|----------------|----------------|----------------|----------------|
A|----------------|----------------|----------------|----------------|----------------|----------------|
E|5-5-5-5-5-5-5-5-|1-1-1-1-1-1-1-1-|3-3-3-3-3-3-3-3-|5-5-5-5-5-5-5-5-|5-5-5-5-5-5-5-5-|1-1-1-1-1-1-1-1-|
B|----------------|----------------|----------------|----------------|----------------|----------------|

G|----------------|----------------|----------------|----------------|----------------|----------------|
D|----------------|7-7-7-7-7-7-7-7-|----------------|----------------|----------------|----------------|
A|----------------|----------------|----------------|----------------|----------------|----------------|
E|0-0-0-0-0-0-0-0-|----------------|5-5-5-5-5-5-5-5-|1-1-1-1-1-1-1-1-|3-3-3-3-3-3-3-3-|5-5-5-5-5-5-5-5-|
B|----------------|----------------|----------------|----------------|----------------|----------------|

G|----------------|----------------|----------------|----------------|
D|----------------|----------------|----------------|----------------|
A|----------------|----------------|----------------|----------------|
E|5-5-5-5-5-5-5-5-|1-1-1-1-1-1-1-1-|0-0-0-0-0-0-0-0-|5---5---5-------|
B|----------------|----------------|----------------|----------------|


************************************

| ~  Vibrato
| /  Slide up
| \  Slide down

************************************

            
            
Suggest correction
Creating personal tab
Creating personal tab
You can edit any tab online and save it as your Personal.

You can edit, replace or remove any tab part or add personal notes – all changes will be seen only by you.

Personal tabs can be accessed anytime from any device, even offline.
Learn more »
Give kudos to tab author, rate the tab!
1 2 3 4 5
comments
print report bad tab
guest
You may want to rate the tab now too:
select rating
Wanna post a correction for this tab? Suggest correction