Oops, an error
Loading. Please wait.

Herr Mannelig intro tab

version 1
version 1

Intro

Interactive

14,741 views 12 this week
1 commentread comment
1 2 3 4 5
x 6
add to favorites
×
Save as Personal and add changes to this tab that will be seen only by you. Learn more ›
×
You can save this tab as Personal to edit and correct it or add notes. All changes will be seen only by you. Learn more »
launch autoscroll
font size
0
reset
how to read this tab
guitar tuner
edit
Autoscroll
slow
fast
+/-
esc
set tempo
stop
Author
Difficulty
------------------------------------------------------------------------------
                             Herr Mannelig - In Extremo
------------------------------------------------------------------------------
Tabbed by: MaidenTallica
Email: N/A

Tuning: Standard
h-Hammer On
s-Slide

   I have listened to this song, and in my opinion the coolest sounding part is the 
so i tabbed out on guitar the trumpet sound. This is not the Haggard version, this is In 
Version. Have Fun

e|--7-7h8-7s5-3--0-2-3-5-3-2-0----2-3---5---3-5-7---10-------------------------|
B|-----------------------------------------------------------------------------|
G|-----------------------------------------------------------------------------|
D|-----------------------------------------------------------------------------|
A|-----------------------------------------------------------------------------|
E|-----------------------------------------------------------------------------|

e|--7-7h8-7s5-3--0-2-3-5-3-2-0----2-3---5---3-2-0----------------------------------|
B|---------------------------------------------------------------------------------|
G|---------------------------------------------------------------------------------|
D|---------------------------------------------------------------------------------|
A|---------------------------------------------------------------------------------|
E|---------------------------------------------------------------------------------|

            
            
Suggest correction
Creating personal tab
Creating personal tab
You can edit any tab online and save it as your Personal.

You can edit, replace or remove any tab part or add personal notes – all changes will be seen only by you.

Personal tabs can be accessed anytime from any device, even offline.
Learn more »
comments
print report bad tab
1 comment total.
+1 reply
VinNny96 10 Dec 14, 2016 06:05 PM

Not that the tab is incorrect...but it's not efficient to only utilize one string... you can rearrange your tab so that your hands don't have to slide all over the place... ect:

e|--7-7h8-7---------------------
B|--------- 10--8-8--8-10-8-7---
G|------------------9---------9-
D|------------------------------
A|------------------------------
E|------------------------------

guest
You may want to rate the tab now too:
select rating
Wanna post a correction for this tab? Suggest correction