Oops, an error
Loading. Please wait.

Everythings Gone tab

version 1
version 1

Whole song

Interactive

1,786 views 9 this week
no commentswrite comment
1 2 3 4 5
x 3
add to favorites
×
Save as Personal and add changes to this tab that will be seen only by you. Learn more ›
×
You can save this tab as Personal to edit and correct it or add notes. All changes will be seen only by you. Learn more »
launch autoscroll
font size
0
reset
how to read this tab
guitar tuner
edit
Autoscroll
slow
fast
+/-
esc
set tempo
stop
IN FLAMES

EVERYTHING'S GONE

A#-F-A#-D#-G-C


TABBED BY andherembrace



-----------------------------------------------------------------|
-----------------------------------------------------------------|
-----------------------------------------------------------------|
-0-1--0-4-3---0-1-3---0--1-2-3--0-1---0-4-3---0-1-3---0--1-2-3---|
-0-1--0-4-3---0-1-3---0--1-2-3--0-1---0-4-3---0-1-3---0--1-2-3---|
-0-1--0-4-3---0-1-3---0--1-2-3--0-1---0-4-3---0-1-3---0--1-2-3---|


-------------------------------------------------------------|
-------------------------------------------------------------|
-------------------------------------------------------------|
-0-1---0-4-3---0-1-3---0--1-2-3--0-1---0-4-3---0-1-3---0-1---|
-0-1---0-4-3---0-1-3---0--1-2-3--0-1---0-4-3---0-1-3---0-1---|
-0-1---0-4-3---0-1-3---0--1-2-3--0-1---0-4-3---0-1-3---0-1---|



0:10

-----------------------------------------------------------------|
-----------------------------------------------------------------|
-----------------------------------------------------------------|
-------------------------1-2-3---------------------------1-2-3---|
-0-1--0-4-3---0-1-3---0--1-2-3--0-1---0-4-3---0-1-3---0--1-2-3---|
-0-1--0-4-3---0-1-3---0--1-2-3--0-1---0-4-3---0-1-3---0--1-2-3---|
 * *  * * *   * * *   *         * *   * * *   * * *   *

-----------------------------------------------------------------|
-----------------------------------------------------------------|
-----------------------------------------------------------------|
-------------------------1-2-3---------------------------1-2-3---|
-0-1--0-4-3---0-1-3---0--1-2-3--0-1---0-4-3---0-1-3---0--1-2-3---|
-0-1--0-4-3---0-1-3---0--1-2-3--0-1---0-4-3---0-1-3---0--1-2-3---|
 * *  * * *   * * *   *         * *   * * *   * * *   *




0:19

----------------------------------------------------------------------------|
----------------------------------------------------------------------------|
----------------6-7-6---------------7-8-7-------------6-7-6-----------------|
----------------X-X-X-----7-8-7-----X-X-X-------------X-X-X-----7/8\7-------|
-0--------------4/5\4-----X-X-X-----5/6\5-------------4/5\4-----X-X-X-----1-|
-0--0-0-0-0-0-0-------0-0-7/8\7-0-0-------0-0-0-0-0-0-------0-0-7/8\7-0-0-1-|
    * * * * * *       * *       * *       * * * * * *       * *       * *

----------------------------------------------------------------------------|
----------------------------------------------------------------------------|
----------------6-7-6---------------7-8-7-------------6-7-6-----------------|
----------------X-X-X-----7-8-7-----X-X-X-------------X-X-X-----7/8\7-------|
-0--------------4/5\4-----X-X-X-----5/6\5-------------4/5\4-----X-X-X-----1-|
-0--0-0-0-0-0-0-------0-0-7/8\7-0-0-------0-0-0-0-0-0-------0-0-7/8\7-0-0-1-|
    * * * * * *       * *       * *       * * * * * *       * *       * *




0:36

---------------------------------------------------------|
---------------------------------------------------------|
----------------------------------------------6-----6-7--|
----------------------------------------------X-----X-X--|
----------------------------------------------4-----4/5--|
-0-1--0-4-3~~-0-1--0-1-3~~-0-1--0-4-3~~-0-0-0---0-0------|
                                        * * *   * * 

---------------------------------------------------------|
---------------------------------------------------------|
----------------------------------------------6-----6-7--|
----------------------------------------------X-----X-X--|
----------------------------------------------4-----4/5--|
-0-1--0-4-3~~-0-1--0-1-3~~-0-1--0-4-3~~-0-0-0---0-0------|
                                        * * *   * * 



0:44

----------------------------------------------------------------------------|
----------------------------------------------------------------------------|
----------------6-7-6---------------7-8-7-------------6-7-6-----------------|
----------------X-X-X-----7-8-7-----X-X-X-------------X-X-X-----7/8\7-------|
-0--------------4/5\4-----X-X-X-----5/6\5-------------4/5\4-----X-X-X-----1-|
-0--0-0-0-0-0-0-------0-0-7/8\7-0-0-------0-0-0-0-0-0-------0-0-7/8\7-0-0-1-|
    * * * * * *       * *       * *       * * * * * *       * *       * *

----------------------------------------------------------------------------|
----------------------------------------------------------------------------|
----------------6-7-6---------------7-8-7-------------6-7-6-----------------|
----------------X-X-X-----7-8-7-----X-X-X-------------X-X-X-----7/8\7-------|
-0--------------4/5\4-----X-X-X-----5/6\5-------------4/5\4-----X-X-X-----1-|
-0--0-0-0-0-0-0-------0-0-7/8\7-0-0-------0-0-0-0-0-0-------0-0-7/8\7-0-0-1-|
    * * * * * *       * *       * *       * * * * * *       * *       * *


1:00

-----------------------------------------------------------------|
-----------------------------------------------------------------|
-----------------------------------------------------------------|
-0-1--0-4-3---0-1-3---0--1-2-3--0-1---0-4-3---0-1-3---0--1-2-3---|
-0-1--0-4-3---0-1-3---0--1-2-3--0-1---0-4-3---0-1-3---0--1-2-3---|
-0-1--0-4-3---0-1-3---0--1-2-3--0-1---0-4-3---0-1-3---0--1-2-3---|


-------------------------------------------------------------|
-------------------------------------------------------------|
-------------------------------------------------------------|
-0-1---0-4-3---0-1-3---0--1-2-3--0-1---0-4-3---0-1-3---0-1---|
-0-1---0-4-3---0-1-3---0--1-2-3--0-1---0-4-3---0-1-3---0-1---|
-0-1---0-4-3---0-1-3---0--1-2-3--0-1---0-4-3---0-1-3---0-1---|




1:09

1
-----------1--5-----------------------------------1---|
-----------1--5-----------------------------------1---|
-7---------3--7--------3--5----------10--5--------3---|
-7---------3--7--------3--5---555-5--10--5-555-5--3---|
-5---------1--5--------1--3---333-3---8--3-333-3--1---|
----000-0--------000-0--------------------------------|
    *** *        *** *        *** *        *** *
2
------------------------------------------------------|
------------------------------------------------------|
-7-------------------10--9-----10--9---10-------------|
------------------------------------------------------|
------------------------------------------------------|
------------------------------------------------------|

1
-----------1--5--------------------------1----1--------|
-----------1--5--------------------------1----1--------|
-7---------3--7--------3--5----------10--3----3--------|
-7---------3--7--------3--5---555-5--10--3-33-3--------|
-5---------1--5--------1--3---333-3---8--1-11-1--------|
----000-0--------000-0------------------------------\--|
    *** *        *** *        *** *        ** 

2
------------------------------------------------------|
------------------------------------------------------|
-7-------------------10--12------------10-------------|
------------------------------------------------------|
------------------------------------------------------|
------------------------------------------------------|




1:26


---------------------------------------------------------|
---------------------------------------------------------|
----------------------------------------------6-----6-7--|
----------------------------------------------X-----X-X--|
----------------------------------------------4-----4/5--|
-0-1--0-4-3~~-0-1--0-1-3~~-0-1--0-4-3~~-0-0-0---0-0------|
                                        * * *   * * 

---------------------------------------------------------|
---------------------------------------------------------|
----------------------------------------------6-----6-7--|
----------------------------------------------X-----X-X--|
----------------------------------------------4-----4/5--|
-0-1--0-4-3~~-0-1--0-1-3~~-0-1--0-4-3~~-0-0-0---0-0------|
                                        * * *   * * 



1:34

----------------------------------------------------------------------------|
----------------------------------------------------------------------------|
----------------6-7-6---------------7-8-7-------------6-7-6-----------------|
----------------X-X-X-----7-8-7-----X-X-X-------------X-X-X-----7/8\7-------|
-0--------------4/5\4-----X-X-X-----5/6\5-------------4/5\4-----X-X-X-----1-|
-0--0-0-0-0-0-0-------0-0-7/8\7-0-0-------0-0-0-0-0-0-------0-0-7/8\7-0-0-1-|
    * * * * * *       * *       * *       * * * * * *       * *       * *

----------------------------------------------------------------------------|
----------------------------------------------------------------------------|
----------------6-7-6---------------7-8-7-------------6-7-6-----------------|
----------------X-X-X-----7-8-7-----X-X-X-------------X-X-X-----7/8\7-------|
-0--------------4/5\4-----X-X-X-----5/6\5-------------4/5\4-----X-X-X-----1-|
-0--0-0-0-0-0-0-------0-0-7/8\7-0-0-------0-0-0-0-0-0-------0-0-7/8\7-0-0-1-|
    * * * * * *       * *       * *       * * * * * *       * *       * *



1
-----------1--5-----------------------------------1---|
-----------1--5-----------------------------------1---|
-7---------3--7--------3--5----------10--5--------3---|
-7---------3--7--------3--5---555-5--10--5-555-5--3---|
-5---------1--5--------1--3---333-3---8--3-333-3--1---|
----000-0--------000-0--------------------------------|
    *** *        *** *        *** *        *** *
2
------------------------------------------------------|
------------------------------------------------------|
-7-------------------10--9-----10--9---10-------------|
------------------------------------------------------|
------------------------------------------------------|
------------------------------------------------------|

1
-----------1--5--------------------------1----1--------|
-----------1--5--------------------------1----1--------|
-7---------3--7--------3--5----------10--3----3---)----|
-7---------3--7--------3--5---555-5--10--3-33-3--2-----|
-5---------1--5--------1--3---333-3---8--1-11-1--------|
----000-0--------000-0---------------------------------|
    *** *        *** *        *** *        ** 

2
------------------------------------------------------|
------------------------------------------------------|
-7-------------------10--12------------10-------------|
-------------------------------------------------)----|
------------------------------------------------5-----|
------------------------------------------------------|




2:08


---------------------------------------------------------|
---------------------------------------------------------|
----------------------------------------------6-----6-7--|
----------------------------------------------X-----X-X--|
----------------------------------------------4-----4/5--|
-0-1--0-4-3~~-0-1--0-1-3~~-0-1--0-4-3~~-0-0-0---0-0------|
                                        * * *   * * 

---------------------------------------------------------|
---------------------------------------------------------|
----------------------------------------------6-----6-7--|
----------------------------------------------X-----X-X--|
----------------------------------------------4-----4/5--|
-0-1--0-4-3~~-0-1--0-1-3~~-0-1--0-4-3~~-0-0-0---0-0------|
                                        * * *   * * 


2:16

L
-------------------------------------------------------------------------|
-------------------------^--------------------------------------)(-------|
-12-13-0-14-0-0-15-0-0-20-19-0-19-0-17-0-12-13-0-14-0-0-15-0-17---~~-----|
-------------------------------------------------------------------------|
-------------------------------------------------------------------------|
-------------------------------------------------------------------------|

R
-------------------------------------------------------------------------|
--------------------------------------------------------------)(---------|
-15-0-0-17-0-0-19-0-0-24-22-0-22-0-20-0-15-0-0-17-0-0-19-0-14---~~-------|
-------------------------------------------------------------------------|
-------------------------------------------------------------------------|
-------------------------------------------------------------------------|

RYTHM
-------------------------------------------------------------------------|
-------------------------------------------------------------------------|
-------------------------------------------------------------------------|
-------------------------------------------------------------------------|
---------6-5----------------------------6-5------------------------------|
-5-6--5---------5-5-5-5-5-5-5-5-5-6--5--------3-3-3-3-3-3-3-3------------|
                * * * * * * * *               * * * * * * * *

L                                                               )()()()(
----------------------------------------------------------------------------|
--------------------------^----------------23-----22-----23---24------------|
--12-13-0-14-0-0-15-0-0-20-19-0-19-0-17-0-----0-0----0-0----0---------------|
----------------------------------------------------------------------------|
----------------------------------------------------------------------------|
----------------------------------------------------------------------------|

R
-------------------------------------------------------------)()()()(-------|
----------------------------------------20-----18-----20---20--------\------|
-15-0-0-17-0-0-19-0-0-24-22-0-22-0-20-0----0-0----0-0----0------------------|
----------------------------------------------------------------------------|
----------------------------------------------------------------------------|
----------------------------------------------------------------------------|




2:26

L
------------------------------------------------------------------|
------------------------------------------------------------------|
--------8-7--------------------------8-7--------------------------|
-5-6--5-----------------------5-6--5------------------------------|
------------------------------------------------------------------|
-------------5-5-5-5-5-5-5-5--------------3-3-3-3-3-3-3-3---------|
             * * * * * * * *              * * * * * * * *
R
------------------------------------------------------------------|
------------------------------------------------------------------|
--------13-12-----------------------13-12-------------------------|
-9-10-9----------------------9-10-9-------------------------------|
------------------------------------------------------------------|
-------------5-5-5-5-5-5-5-5--------------3-3-3-3-3-3-3-3---------|
             * * * * * * * *              * * * * * * * *   


L
------------------------------------------------------------------|
------------------------------------------------------------------|
--------8-7--------------------------8-7--------------------------|
-5-6--5-----------------------5-6--5------------------------------|
------------------------------------------------------------------|
-------------5-5-5-5-5-5-5-5--------------3-3-3-3-3-3-3-3---------|
             * * * * * * * *              * * * * * * * *
R
------------------------------------------------------------------|
------------------------------------------------------------------|
--------13-12-----------------------13-12-------------------------|
-9-10-9----------------------9-10-9-------------------------------|
------------------------------------------------------------------|
-------------5-5-5-5-5-5-5-5--------------3-3-3-3-3-3-3-3---------|
             * * * * * * * *              * * * * * * * *   

L
------------------------------------------------------------------|
------------------------------------------8-7---7\6---6\5---------|
---------8-7----------7-5-----------8-7-------8-----7-------------|
-5-6--5-------5-6--5--------5-6--5--------------------------------|
------------------------------------------------------------------|
------------------------------------------------------------------|
      *            *             *            *     * 
R
------------------------------------------------------------------|
--------------------------------------------11-10---10\9----9\8---|
--------13-12---------12-10---------13-12---------11------10------|
-9-10-9--------9-10-9--------9-10-9-------------------------------|
------------------------------------------------------------------|
------------------------------------------------------------------|
      *             *             *                *       *


2:38

---------------------------------------------------------|
---------------------------------------------------------|
----------------------------------------------6-----6-7--|
----------------------------------------------X-----X-X--|
----------------------------------------------4-----4/5--|
-0-1--0-4-3~~-0-1--0-1-3~~-0-1--0-4-3~~-0-0-0---0-0------|
                                        * * *   * * 

---------------------------------------------------------|
---------------------------------------------------------|
----------------------------------------------6-----6-7--|
----------------------------------------------X-----X-X--|
----------------------------------------------4-----4/5--|
-0-1--0-4-3~~-0-1--0-1-3~~-0-1--0-4-3~~-0-0-0---0-0------|
                                        * * *   * * 




2:46

----------------------------------------------------------------------------|
----------------------------------------------------------------------------|
----------------6-7-6---------------7-8-7-------------6-7-6-----------------|
----------------X-X-X-----7-8-7-----X-X-X-------------X-X-X-----7/8\7-------|
-0--------------4/5\4-----X-X-X-----5/6\5-------------4/5\4-----X-X-X-----1-|
-0--0-0-0-0-0-0-------0-0-7/8\7-0-0-------0-0-0-0-0-0-------0-0-7/8\7-0-0-1-|
    * * * * * *       * *       * *       * * * * * *       * *       * *

----------------------------------------------------------------------------|
----------------------------------------------------------------------------|
----------------6-7-6---------------7-8-7-------------6-7-6-----------------|
----------------X-X-X-----7-8-7-----X-X-X-------------X-X-X-----7/8\7-------|
-0--------------4/5\4-----X-X-X-----5/6\5-------------4/5\4-----X-X-X-------|
-0--0-0-0-0-0-0-------0-0-7/8\7-0-0-------0-0-0-0-0-0-------0-0-7/8\7-0-00--|
    * * * * * *       * *       * *       * * * * * *       * *       * **





1
-----------1--5-----------------------------------1---|
-----------1--5-----------------------------------1---|
-7---------3--7--------3--5----------10--5--------3---|
-7---------3--7--------3--5---555-5--10--5-555-5--3---|
-5---------1--5--------1--3---333-3---8--3-333-3--1---|
----000-0--------000-0--------------------------------|
    *** *        *** *        *** *        *** *
2
------------------------------------------------------|
------------------------------------------------------|
-7-------------------10--9-----10--9---10-------------|
------------------------------------------------------|
------------------------------------------------------|
------------------------------------------------------|

1
-----------1--5--------------------------1----1--------|
-----------1--5--------------------------1----1--------|
-7---------3--7--------3--5----------10--3----3---)----|
-7---------3--7--------3--5---555-5--10--3-33-3--2-----|
-5---------1--5--------1--3---333-3---8--1-11-1--------|
----000-0--------000-0---------------------------------|
    *** *        *** *        *** *        ** 

2
------------------------------------------------------|
------------------------------------------------------|
-7-------------------10--12------------10-------------|
-------------------------------------------------)----|
------------------------------------------------5-----|
------------------------------------------------------|



            
            
Suggest correction
Creating personal tab
Creating personal tab
You can edit any tab online and save it as your Personal.

You can edit, replace or remove any tab part or add personal notes – all changes will be seen only by you.

Personal tabs can be accessed anytime from any device, even offline.
Learn more »
Give kudos to tab author, rate the tab!
1 2 3 4 5
comments
print report bad tab
guest
You may want to rate the tab now too:
select rating
Wanna post a correction for this tab? Suggest correction