Oops, an error
Loading. Please wait.

Siren Charms tab

version 1
version 1

Whole song

Interactive

4,969 views 9 this week
3 commentsread comments
1 2 3 4 5
x 3
add to favorites
×
Save as Personal and add changes to this tab that will be seen only by you. Learn more ›
×
You can save this tab as Personal to edit and correct it or add notes. All changes will be seen only by you. Learn more »
launch autoscroll
font size
0
reset
how to read this tab
guitar tuner
edit
Autoscroll
slow
fast
+/-
esc
set tempo
stop
-------------------------------------------------------------------------------
                             SONG NAME - Band Name
-------------------------------------------------------------------------------
Tabbed by: Empress Angelia

I'm working on tabbing this out by ear.. I know they don't play in Standard, but I'm 
tabbing it out for acoustic
guitar in Standard Tuning because that's how I'm covering it. Feel free to help out. 
This is what I have so far.

Tuning: Standard

(Intro & Verses)
e|---------------------------------------------------------------------------|
B|------7--------------------------------------------------------------------|
G|------------10-----8-------4-----4-----4-----3-----------------------------|
D|----8-----8------8-------4-----4-----4-----4-------------------------------|
A|--6-----6------6-------2-----2-----2-----2---------------------------------|
E|---------------------------------------------------------------------------|

e|---------------------------------------------------------------------------|
B|-----7---------------------------------------------------------------------|
G|-----------10-----8--------4-----4---------8-10-8--------------------------|
D|---8-----8------8--------4---4-----4-----8---------------------------------|
A|-6-----6------6--------2-------2-----2-6-----------6-----------------------|
E|---------------------------------------------------------------------------|

How far until the edge? These wrong ways are mine.
But the whole world can just go to hell..
This life is killing me. My feelings inside, I can't explain.
I'm awake, but not for long..


(Pre-Chorus)
e|------------------------------------------|
B|------------------------------------------|
G|------------------------------------------|
D|------------------------------------------|
A|--8-8-8-8-8-8-8-8----4-4-4-4-4-4-4-4------|
E|--6-6-6-6-6-6-6-6----2-2-2-2-2-2-2-2------| x2

The hope is still not gone,
somewhere behind the clouds.


(Chorus)
e|---------------------------------------------------------------------------|
B|---------------------------------------------------------------------------|
G|---15-14----15-14----15-14----15-14----15-14----15-14----15-14----15-14----|
D|---------13-------13-------13-------13-------13-------13-------13-------13-|
A|---------------------------------------------------------------------------|
E|---------------------------------------------------------------------------|

I'll set you free if you follow me.
Reach out touch the hand of God!

e|--------|
B|--------|
G|--8-----|
D|--8-----|
A|--6-----|
E|--------|

[[[Verse 2]]]
I gave you the story of my life.
Some of my precious time, but I'm tired of this.
With every promise of eternal light,
another feeling dies..


[[[Pre-Chorus]]]
The hope is still not gone,
somewhere behind the clouds.


[[[Chorus]]]
I'll set you free if you follow me.
Reach out touch the hand of God!


(Breakdown)
e|---------------------------------|
B|---------------------------------|
G|---------------------------------|
D|---------------------------------|
A|-8-7---7-8-4---4-8-7---7-8-4---4-|
E|-6-5---5-6-2---2-6-5---5-6-2---2-| x2

e|-------------------------------------|
B|-------------------------------------|
G|-------------------------------------|
D|-------------------------------------|
A|-10-9---9-10-6---6-10-9---9-10-6---6-|
E|-8--7---7-8--4---4-8--7---7-8--4---4-| x2


---That's all I have so far.


************************************

| /   slide up
| \   slide down
| h   hammer-on
| p   pull-off
| ~   vibrato
| +   harmonic
| x   Mute note
| b   Bend
| pb  Pre-bend
| br  Bend release
| pbr Pre-bend release
| brb Bend release bend

************************************

            
            
Suggest correction
Creating personal tab
Creating personal tab
You can edit any tab online and save it as your Personal.

You can edit, replace or remove any tab part or add personal notes – all changes will be seen only by you.

Personal tabs can be accessed anytime from any device, even offline.
Learn more »
Give kudos to tab author, rate the tab!
1 2 3 4 5
comments
print report bad tab
3 comments total.
0 reply
tombo.north 10 Dec 15, 2014 06:17 AM

My guitar just happened to be in drop-B and I believe that is the correct tuning to play the intro

Which makes me wonder if its not just the bass guitar doing it.

Anyways. if you start off with a power chord fingering on the lowest D# (bridge the 4th fret) and then go to an open B power chord you have the intro pretty much down without any strange fingering or picking.

So the intro is something like

D# B
D# B G#

In power chords, with embellishment

0 reply
tombo.north 10 Dec 15, 2014 06:27 AM, edited at 11:28 am

Heck, it seems comments are posted in the right font, so heres what im talking about
B |-------7--------6--------4-----------|F#|----4--------4--------4-------rest---|B |-4--------4--------4-----------------|B |-------0--------0--------0-----------|F#|----0--------0--------0--------0--4--|B |-0--------0--------0--------0--------|B |-------7--------6--------4-----------|F#|----4--------4--------4-------rest---|B |-4--------4--------4-----------------|B |-------0--------0--------9-----------|F#|----0--------0--------9--------------|B |-0--------0--------9--------9--7-p6--| ^ back to beginningUse ring finger here ^ ^ to facilitate the transition to middle finger here so you can pull off

+1 reply
tombo.north 10 Dec 15, 2014 06:30 AM

Heck, it seems comments are posted in the right font, so heres what im talking about

B |-------7--------6--------4-----------|
F#|----4--------4--------4-------rest---|
B |-4--------4--------4-----------------|

B |-------0--------0--------0-----------|
F#|----0--------0--------0--------0--4--|
B |-0--------0--------0--------0--------|

B |-------7--------6--------4-----------|
F#|----4--------4--------4-------rest---|
B |-4--------4--------4-----------------|

B |-------0--------0--------9-----------|
F#|----0--------0--------9--------------|
B |-0--------0--------9--------9--7-p6--| ^ back to beginning

Use ring finger here -^
and transition to middle finger on 7^ so you can pull off

guest
You may want to rate the tab now too:
select rating
Wanna post a correction for this tab? Suggest correction